Foo Fighters - Good Grief Chords & Tabs

 

Good Grief Chords & Tabs

Foo Fighters Chords & Tabs

Version: 1 Type: Tab 0 ratings
1 star 2 stars 3 stars 4 stars 5 stars
comments

Good Grief Tab

#----------------------------------PLEASE NOTE---------------------------------#
#This file is the author's own work and represents their interpretation of the #
#song. You may only use this file for private study, scholarship, or research. #
#------------------------------------------------------------------------------##
From: ArglBargle@aol.com
Date: Mon, 24 Jul 1995 11:40:01 -0400
Subject: TAB: Foo Fighters - "Good Grief"

==================
    Good Grief
    ----------
   FOO FIGHTERS
==================
Tabbed by Jeff Aldrich (ArglBargle@aol.com)  


This TAB is pretty straight-forward.  The entire song is mostly barre
chords, but the intro riff is pretty interesting and the odd amount
of chord changes in the chorus is pretty neat.  During the intro,
the guitar plays its part while the bass plays B-D-F#-A underneath
it.
Please feel free to write to me about the TABs because it can get kind 
of frustrating to keep posting these TABs and never get any responses, 
so feel free to E-Mail me anytime about the TAB.





  Intro/Pre-Verse:

e:--------------------------------|------------------------------|
B:--------------------------------|------------------------------|
G:--------------------------------|------------------------------|
D:-------9---7---9---7---7-9---7--|-0-0---9---7---9---7---7-9-7--|
A:-9-9----------------------------|------------------------------|
E:--------------------------------|------------------------------|

e:-------------------------|------------|
B:-------------------------|------------|
G:-6---9~~~--6---9---6-----|------9~~~--|
D:-------------------------|-9----------|
A:-------------------------|------------|
E:-------------------------|------------|



  
  
  Verse:

e:------------------------------------|------------------------------------|
B:------------------------------------|------------------------------------|
G:-4-4-4-4--4-4-4-4--4-4-4-4--4-4-4-4-|-7-7-7-7--7-7-7-7--7-7-7-7--7-7-7-7-|
D:-4-4-4-4--4-4-4-4--4-4-4-4--4-4-4-4-|-7-7-7-7--7-7-7-7--7-7-7-7--7-7-7-7-|
A:-2-2-2-2--2-2-2-2--2-2-2-2--2-2-2-2-|-5-5-5-5--5-5-5-5--5-5-5-5--5-5-5-5-|
E:------------------------------------|------------------------------------|
             Since  I'm   good                


e:------------------------------------|------------------------------------|
B:------------------------------------|------------------------------------|
G:------------------------------------|------------------------------------|
D:-4-4-4-4--4-4-4-4--4-4-4-4--4-4-4-4-|-7-7-7-7--7-7-7-7--7-7-7-7--7-7-7-7-|
A:-4-4-4-4--4-4-4-4--4-4-4-4--4-4-4-4-|-7-7-7-7--7-7-7-7--7-7-7-7--7-7-7-7-|
E:-2-2-2-2--2-2-2-2--2-2-2-2--2-2-2-2-|-5-5-5-5--5-5-5-5--5-5-5-5--5-5-5-5-|
   truth     is    around   






  Chorus:

e:------------------------------------|-----------------------------------|
B:------------------------------------|-----------------------------------|
G:-2-2-2-2--2-2-2-2-------------------|-------------------2-2-2-2--2-2-2-2|
D:-2-2-2-2--2-2-2-2--2-2-2-2--2-2-2-2-|-4-4-4-4--4-4-4-4--2-2-2-2--2-2-2-2|
A:-0-0-0-0--0-0-0-0--2-2-2-2--2-2-2-2-|-4-4-4-4--4-4-4-4--0-0-0-0--0-0-0-0|
E:-------------------0-0-0-0--0-0-0-0-|-2-2-2-2--2-2-2-2------------------|
       Hate it!   X3


e:------------------------------------|------------------------------------|
B:------------------------------------|------------------------------------|
G:------------------------------------|-2-2-2-2--2-2-2-2-------------------|
D:-2-2-2-2--2-2-2-2--4-4-4-4--4-4-4-4-|-2-2-2-2--2-2-2-2--2-2-2-2--2-2-2-2-|
A:-2-2-2-2--2-2-2-2--4-4-4-4--4-4-4-4-|-0-0-0-0--0-0-0-0--2-2-2-2--2-2-2-2-|
E:-0-0-0-0--0-0-0-0--2-2-2-2--2-2-2-2-|-------------------0-0-0-0--0-0-0-0-|
       Hate it!    X3

                                                             
  
  
  Bridge:

e:---------------------------|------------------------------|
B:---------------------------|------------------------------|
G:---------2---2---2---2---2-|---------2---2---2---2---2---4|
D:---------2---2---2---2---2-|---------2---2---2---2---2---4|
A:-2---2---------------------|-2---2------------------------|
E:---------------------------|------------------------------|
[ Tab from: http://www.guitartabs.cc/tabs/f/foo_fighters/good_grief_tab.html ]
e:------------------------------------|------------------|
B:------------------------------------|------------------|
G:-------------------2-2-2-2--2-2-2-2-|------------------|
D:-4-4-4-4--4-4-4-4--2-2-2-2--2-2-2-2-|-2-2-2-2--2-2-2-2-|
A:-4-4-4-4--4-4-4-4--0-0-0-0--0-0-0-0-|-2-2-2-2--2-2-2-2-|
E:-2-2-2-2--2-2-2-2-------------------|-0-0-0-0--0-0-0-0-|


Enjoy!

-----------------------------------------------------------------------------------------------------------------------------------------------------------------------------------------------------------------------------------------------------------------------------------------------------------------------------------------------------------------------------------------------------------------------------------------------------------------------------------------------------------------------------------------------------------------------------------------------------------------------


From: MadMac1013@aol.com
Date: Fri, 4 Aug 1995 19:55:50 -0400
Subject: Good Grief by Foo Fighters

Hello, everyone.  I have enjoyed many of the transcriptions out there.  They
are very helpful.  I used previous versions of this posting to form my own
interpretation.  So here it goes.

I hear this song a little flat.  I basically play Jeff's (ArglBargle@aol.com)
transcription, but one step low, making A's, B's, and E's flat and making F's
natural (I took a guitar class.  Doesn't it show?)
I use a "Dropped-D" tuning rather than retuning to E flat.  The intro goes
something like this:
        The intro=
E|----------------------------------------------------------------------------
B|---------------------------------------------------------------------6------
G|------------------------------------------------8-----------------8-----8---
D|--------8--6--8--6--8-----8--6--8--6--8-----8----6--8--6--8--6--------------
A|------8----------------8------------------8---------------------------------
E|----------------------------------------------------------------------------

Verse 1:
       (Since I'm putting down ect)
E|------------------------------------------------------------|-  (repeat
twice)
B|--3--3--3--3----6--6--6--6---------------------------------|-
G|--3--3--3--3----6--6--6--6---------------------------------|-
D|--3--3--3--3----6--6--6--6----3--3--3--3----6--6--6--6----|-
A|--1--1--1--1----4--4--4--4----3--3--3--3----6--6--6--6----|-
E|------------------------------3--3--3--3----6--6--6--6----|-

     When I think     about it,    
it!   
E|------------------------------------------------------------------------- 
B|--3--3--3--3---6--6--6--6---------------------------------------------
G|--3--3--3--3---6--6--6--6-----------------------------------------------
D|--3--3--3--3---6--6--6--6---3--3--3--3----6--6--6---1--1--1---3--3--3-
A|--1--1--1--1---4--4--4--4---3--3--3--3----6--6--6---1--1--1---3--3--3--
E|----------------------------3--3--3--3----6--6--6---1--1--1---3--3--3---

         Hate it! X3     
E|------------------------------------------------------ 
B|------------------------------------------------------
G|--6--6--6---1--1--1---3--3--3--6--6--6----1-1-1-1---
D|--6--6--6---1--1--1---3--3--3--6--6--6----1-1-1-1---
A|--6--6--6---1--1--1---3--3--3--6--6--6----1-1-1-1---

Intro played

Verse 2
 
Bridge:
                    Good Grief
                                                       Good Grief   
E|----------------------------------------------------------------------------
B|----------------------------------------------------------------------------
G|----------------------------------------------------------------------------
D|---6--8--6--8--6--8--6--8---3--3--3--3--3---6--8--6--8--6--8--6--8----------
A|---6--8--6--8--6--8--6--8---3--3--3--3--3---6--8--6--8--6--8--6--8----------
E|---6--8--6--8--6--8--6--8---3--3--3--3--3---6--8--6--8--6--8--6--8----------

     
E|----------------------------------------------------------------------------
B|----------------------------------------------------------------------------
G|----------------------------------------------------------------------------
D|----3--3--3--3--6--6--6--6--1--1--1--1---3--3--3--3--6--6--6--6--1--1--1--1-
A|----3--3--3--3--6--6--6--6--1--1--1--1---3--3--3--3--6--6--6--6--1--1--1--1-
E|----3--3--3--3--6--6--6--6--1--1--1--1---3--3--3--3--6--6--6--6--1--1--1--1-


Repeat Verse 1

And that's about it.  It's a little different.  I think it sounds cool this
way, and it's easy enough for me to play while singing.  You can try without
the "Dropped-D" but the bridge is a lot harder.  Have fun.  Send comments to


madmac1013@aol.com.  


---------------------------------------------------------------------------------------------------  
Comments