Foo Fighters - Gimme Stitches Chords & Tabs

 

Gimme Stitches Chords & Tabs

Foo Fighters Chords & Tabs

Version: 3 Type: Tab 0 ratings
1 star 2 stars 3 stars 4 stars 5 stars
comments

Gimme Stitches Tab

   
Foo Fighters - Gimme Stitches
(Normal Tuning)

J.C.B

Great song, ive tabbed it as good as they play. Good luck!
Intro
(Gtr. 1)
e||---------------||
B||---------------||
G||---------------||
D||---------------||
A||--2/4-0-0-0-0--||
E||---------------||

(Gtr. 1 - 2nd version)
e||---------------|| 
B||---------------|| 
G||------9-9-9-9--|| 
D||------7-7-7-7--|| 
A||------0-0-0-0--|| 
E||--5/9----------|| 

(Guitar 2)
e||---------------||
B||---------------||
G||--4/6-2-2-2-2--||
D||---------------||
A||---------------||
E||---------------||

(High Guitar)
e||--5---3-5--||
B||----5------|| (Repeat) 
G||-----------||
D||-----------||
A||-----------||
E||-----------||


Verse
A5 G5 F#5 E5

[ Tab from: http://www.guitartabs.cc/tabs/f/foo_fighters/gimme_stitches_tab_ver_3.html ]
Chorus
A5 D5 F5 C5
"Dress me up in stiches..."
"Blood on you..."


Bridge
     A5 A5/Ab  G5 G5/F# 
e||--------------------||
B||--------------------||
G||--------------------||
D||--7----7----5----5--||
A||--7----7----5----5--||
E||--5----4----3----2--||
  "How can you go on..."


Outro
F5 C5
"Gimme stiches..."


Outro
e||---------------------------------------------------||
B||---------------------------------------------------||
G||---------------------------------------------------||
D||------------------------------------5---7b8r7---5--||
A||------3--5b6r5---3------------5h7------------------||
E||--3/5----------------------------------------------||

___________________________
Comments