Foo Fighters - Gimme Stitches Chords & Tabs

 

Gimme Stitches Chords & Tabs

Foo Fighters Chords & Tabs

Version: 2 Type: Tab 0 ratings
1 star 2 stars 3 stars 4 stars 5 stars
comments

Gimme Stitches Tab

Artist: Foo Fighters
Song: Gimme Stitches
Album: There is Nothing Left to Lose
Tabbed by: Cody Morrison

[ Tab from: http://www.guitartabs.cc/tabs/f/foo_fighters/gimme_stitches_tab_ver_2.html ]
Guitar 1 (intro)
E --------------------------------------------------
B --------------------------------------------------
G ------9--9--9--9------9--9--9--9------9--9--9--9--
D ------7--7--7--7------7--7--7--7------7--7--7--7--
A ------0--0--0--0------0--0--0--0------0--0--0--0--
E -5/9--------------8b--------------8b--------------

E --------------------
B --------------------
G -----9--9-----------
D -----7--7--------3-- x2
A -----0--0--------3--
E -8b--------0--0--1--

(main riff)
E -----------------
B -----------------
G -----9--9--9--9--
D -----7--7--7--7--
A -----0--0--0--0--
E -8b--------------

The second guitar part to come...as soon as I figure it out.
Comments