Foo Fighters - Free Me Chords & Tabs

 

Free Me Chords & Tabs

Foo Fighters Chords & Tabs

Version: 2 Type: Tab 0 ratings
1 star 2 stars 3 stars 4 stars 5 stars
comments

Free Me Tab

From http://www.fftabs.com -- the best place on the planet for Foo Fighters Tabs.

Foo Fighters - Free Me

Album: 2005 - In Your Honor
Instrument: Guitar
Tuning: eBGDAE

Tabbed By: Monkey Fighter


Intro/1st.Verse

Gtr.1                                                 5x
e||-----------0-----------0-----------0-----------------|----------------||
B||-----------0-----------0-----------0-----------------|----------------||
G||-----------0-----------0-----------0-----------------|----------------||
D||-----------2-----------2-----------2-----------------|----------------||
A||--------2--2--------2--2--------2--2--------2-0-1-0--|--------2-0-1-0-||
E||--0--0-----0--0--0-----0--0--0-----0--0--0-----------|--0--0----------||

Gtr.2
e||------12--||
B||--12------||
G||----------|| Played 2 or 3 times. Listen the song to get it.
D||----------||
A||----------||
E||----------||


Verses
[ Tab from: http://www.guitartabs.cc/tabs/f/foo_fighters/free_me_tab_ver_2.html ]
e||-----------0-----------0-----------0-----------------||
B||-----------0-----------0-----------0-----------------||
G||-----------0-----------0-----------0-----------------||
D||-----------2-----------2-----------2-----------------||
A||--------2--2--------2--2--------2--2--------2-0-1-0--||
E||--0--0-----0--0--0-----0--0--0-----0--0--0-----------||


Chorus

Gtr.1
e||--------------||
B||--------------||
G||--4--2--------||
D||--4--2--6--2--||
A||--2--0--6--2--||
E||--------4--0--||

Gtr.2
e||-----------------||
B||-----------------||
G||--------------4--|| This repeated a few times
D||--------2--2-----||
A||--0--0-----------||
E||-----------------||


Post-Chorus(2nd and 3rd Chorus)

Gtr.1
e||----------||
B||----------||
G||--4--2----||
D||--4--2--2-||
A||--2--0--2-||
E||--------0-||

Gtr.2
e||-----------------|-----------------||
B||-----------------|-----------------||
G||--------------4--|-----------------||
D||--------2--2-----|--------4--4--5--||
A||--0--0-----------|--0--0-----------||
E||-----------------|-----------------||

Verse riff is repeated many times along the song but heavier and without lyrics, also
it's played on screaming parts and on the outro too.
Theres one part of the outro i couldn't figure out, its too fast for me... Sorry.
Maybe someone else can figure that out.

_____________________
http://www.fftabs.com
Comments