Foo Fighters - Free Me Chords & Tabs

 

Free Me Chords & Tabs

Foo Fighters Chords & Tabs

Version: 1 Type: Tab 2 ratings
1 star 2 stars 3 stars 4 stars 5 stars
comments

Free Me Tab

Foo Fighters - Free Me 

Album: 2005 - In Your Honor

Tuning: eBGDAE

Tabbed By: Pablomassolo84.


Intro/1st Verse
  Gtr.1      v          v          v              5x
e||----------0----------0----------0----------------||
B||----------3----------3----------3----------------||
G||----------0----------0----------0----------------||
D||----------2----------2----------2----------------||
A||------2----------2----------2----------2---1-0---||
E||--0-0---0----0-0---0----0-0---0----0-0---0-------||

  Gtr.2      2x
e||----------||
B||----------||
G||----------|| 
D||------2---||
A||-2--------||
E||---0------|| 

             2x
e||------12--||
B||--12------||
G||----------|| 
D||----------||
A||----------||
E||----------||

  Gtr.1 Gtr.2  2x      Gtr.1        
e||--------------------------------||
B||--------------------------------||
G||--------------------------------||
D||--------------------------------||
A||------9-----8-7-----------------||
E||--0-0-7-0---6-5-----0-/-15-/-0--||

Main riff
  Gtr. 1				             
e||----------------------------------------------------||
B||----------------------------------------------------||
G||----------------------------------------------------||
D||----------------------------------------------------||
A||----------7~---------7~---------7~---------8-7------||
E||--0-0-7-0----0-0-7-0----0-0-7-0----0-0-7-0-6-5------||

  Gtr. 2						     
e||----------------------------------------------------||
B||----------------------------------------------------||
G||----------------------------------------------------||
D||----------------------------------------------------||
A||----------10~---------10~---------10~----------8-7--||
E||--0-0-7-0-----0-0-7-0-----0-0-7-0------0-0-7-0-6-5--||


Verses
                              
             v          v          v              
e||----------0----------0----------0----------------||
B||----------3----------3----------3----------------||
G||----------0----------0----------0----------------||
D||----------2----------2----------2----------------||
A||------2----------2----------2----------2---1-0---||
E||--0-0---0----0-0---0----0-0---0----0-0---0-------||

Chorus
  Gtr.1
e||---------------------------------------------------------||
B||---------------------------------------------------------||
G||----------------------------------------9-9-9-9-9-9-9-9--||
D||--5-5-5-5-5-5-5-7-7-7-7-7-7-6-6-6-6-6-6-9-9-9-9-9-9-9-9--||
A||--5-5-5-5-5-5-5-7-7-7-7-7-7-6-6-6-6-6-6-7-7-7-7-7-7-7-7--||
E||--3-3-3-3-3-3-3-5-5-5-5-5-5-4-4-4-4-4-4-0-0-0-0-0-0-0-0--||
[ Tab from: http://www.guitartabs.cc/tabs/f/foo_fighters/free_me_tab.html ]
  Gtr.2     2x             2x          2x          2x       2x
e||---------------------------------------------------------||
B||---------------------------------------------------------||
G||----------4-------------4------------4-----------4-------|| 
D||-------2-------------2------------2-----------2----------||
A||----------------0-0--------------------------------------||
E||--3-3------------------------4-4---------0-0-------------||


Post-Chorus(2nd and 3rd Chorus)
  Gtr.1
e||--------------------------||
B||--------------------------||
G||--------------------------||
D||--5-5-5-5---7-7-7-7---7---||
A||--3-3-3-3---5-5-5-5---7---||
E||----------------------5---||

  Gtr.2             2x              2x              4x
e||-----------------|----------------------------------------||
B||-----------------|----------------------------------------||
G||--------------4--|-------------------------------4--------||
D||--------2--------|--------4-----5----------2--------------||
A||--3--3-----3-----|--5--5-----5-------0--0-----0-----------||
E||-----------------|----------------------------------------||


e||----------------------||
B||----------------------||
G||----------------------||
D||----------------------||
A||----------------------||
E||--7-7--6-6--5-5--3-3--||

  Gtr. 1				             
e||----------------------------------------------------||
B||----------------------------------------------------||
G||----------------------------------------------------||
D||----------------------------------------------------||
A||----------7~---------7~---------7~---------8-7------||
E||--0-0-7-0----0-0-7-0----0-0-7-0----0-0-7-0-6-5------||

  Gtr. 2						     
e||----------------------------------------------------||
B||----------------------------------------------------||
G||----------------------------------------------------||
D||----------------------------------------------------||
A||----------10~---------10~---------10~----------8-7--||
E||--0-0-7-0-----0-0-7-0-----0-0-7-0------0-0-7-0-6-5--||

 
e||----------------------||
B||----------------------||
G||----------------------||
D||----------------------||
A||--9-9--8-8--7-7--5-5--||
E||--7-7--6-6--5-5--3-3--||

  Gtr. 1				             
e||----------------------------------------------------||
B||----------------------------------------------------||
G||----------9----------9----------9-------------------||
D||----------9----------9----------9-------------------||
A||----------7----------7----------7----------8-7------||
E||--0-0-7-0----0-0-7-0----0-0-7-0----0-0-7-0-6-5------||

  Gtr. 2						     
e||----------------------------------------------------||
B||----------------------------------------------------||
G||----------------------------------------------------||
D||----------------------------------------------------||
A||----------10~---------10~---------10~----------8-7--||
E||--0-0-7-0-----0-0-7-0-----0-0-7-0------0-0-7-0-6-5--||

  Gtr.1 Gtr.2  2x      Gtr.1        
e||--------------------------------||
B||--------------------------------||
G||--------------------------------||
D||--------------------------------||
A||------9-----8-7-----0-/-19-/----||
E||--0-0-7-0---6-5-----------------||


 Final chord.
e||--0----||
B||--0----||
G||--x----||
D||--2----||
A||--2----||
E||--0----||

* Lyrics *
Comments