Foo Fighters - Fraternity Chords & Tabs

 

Fraternity Chords & Tabs

Foo Fighters Chords & Tabs

Version: 3 Type: Tab 0 ratings
1 star 2 stars 3 stars 4 stars 5 stars
comments

Fraternity Tab

Its an easy song to learn, and easy to understand
where the different parts come in

ENJOY

e  --------------------------------------------------------|
b  --------------------------------------------------------|
g  --88888888-5-5-------8888-5-5-------8888-5-5------------|
d  --88888886-5-5--5-5--8888-5-5--6-6--8888-5-5--5-5--66-33|
a  --66666666-3-3--5-5--6666-3-3--6-6--6666-3-3--5-5--66-33|
E  ----------------3-3------------4-4------------3-3--44-11|

"Ill never be fraternity"

e  ---------------------------------------------------|
b  ---------------------------------------------------|
g  -10-10-10-12--8-7-8--3----10-10-10-12--8-7-8-3\1p0-|
d  ---------------------------------------------------|
a  ---------------------------------------------------|
E  ---------------------------------------------------|

e  ----------------------------------------------------|
b  ----------------------------------------------------|
g  -10-10-10-12--8-7-8--3--5-8-7-10--8-----------------|
d  ----------------------------------------------------|
a  ----------------------------------------------------|
E  ----------------------------------------------------|

"Swear in violence"

e  ---------------------------------------------------|
b  ---------------------------------------------------|
g  --4-4--6-6-----------------------------------------|
d  --4-4--6-6--6-6--8-8-------------------------------|
a  --2-2--4-4--6-6--8-8-------------------------------|
E  ------------4-4--6-6-------------------------------|

Bridge
[ Tab from: http://www.guitartabs.cc/tabs/f/foo_fighters/fraternity_tab_ver_3.html ]
e  ----------------|
b  -------9--------|
g  -10-11--11------|
d  ----------------|        x16
a  ----------------|
E  ----------------|

Solo

e  ---------------------------------------------------|
b  ---------------------------------------------------|
g  -10-10-10-12-10-12-13-12-13-13-15------------------|
d  ---------------------------------------------------|
a  ---------------------------------------------------|
E  ---------------------------------------------------|

e  ---------------------------------------------------|
b  ---------------------------------------------------|
g  -15-15-15-17--15-13-12-13-15-13--------------------|
d  ---------------------------------------------------|
a  ---------------------------------------------------|
E  ---------------------------------------------------|

e  -----------------------------------------------------|
b  -18-18-18-18-20-18-16-15-16-18-----------16-15-18-16-|
g  -------------------------------15---17---------------|
d  -----------------------------------------------------|
a  -----------------------------------------------------|
E  -----------------------------------------------------|

e  ------------------------------------------------------------|
b  ------------------------------------------------------------|
g  --88888888-5-5-------8888-5-5-------8888-5-5---------------8|
d  --88888886-5-5--5-5--8888-5-5--6-6--8888-5-5--5-5--66-33x--8|
a  --66666666-3-3--5-5--6666-3-3--6-6--6666-3-3--5-5--66-33x--6|
E  ----------------3-3------------4-4------------3-3--44-11x---|
Comments