Foo Fighters - Floaty Chords & Tabs

 

Floaty Chords & Tabs

Foo Fighters Chords & Tabs

Version: 1 Type: Bass Tab 0 ratings
1 star 2 stars 3 stars 4 stars 5 stars
comments

Floaty Bass Tab

Floaty- by Dave Grohl of the Foo Fighters..   
tabbed by weevil(sub@servtech.com)

G|----------------------------------------------------------------
D|----------------------------------------------------------------
A|-------------------------------5-5-5-5-5-5-5-5--3-3-3-3-3--0-0--
E|--0-0-0-0-0-0-0-0-0-0-0-0-0-------------------------------------
[ Tab from: http://www.guitartabs.cc/tabs/f/foo_fighters/floaty_btab.html ]
G|----------------------------------------------------------------
D|----------------------------------------------------------------
A|--------------------------------4-------------------------------
E|--4----4--4------------5--5------------0--0-0-0-0--0-0-0--------

bridge type section
G|----------------------------------------------------------------
D|----------------------------------------------------------------
A|--2-2-2-2-2-2-2---5-5-5--2-5------------------------------------
E|------------------------------4-4-4-4-4-4---0-0-0--4-4-4--------


Comments