Foo Fighters - Exhausted Chords & Tabs

 

Exhausted Chords & Tabs

Foo Fighters Chords & Tabs

Version: 2 Type: Tab 1 rating
1 star 2 stars 3 stars 4 stars 5 stars
comments

Exhausted Tab

   
#----------------------------------PLEASE NOTE---------------------------------#
#This file is the author's own work and represents their interpretation of the #
#song. You may only use this file for private study, scholarship, or research. #
#------------------------------------------------------------------------------#

Foo Fighters - Exhausted
(Drop D tuning)


Intro/Verse
-Slow tempo each verse chords strummed 6 times.
-The chords Bb and A are played 8 times each and
G 16 time after verse on a faster tempo.
-Live, Dave often likes to add is pinky finger on the "Am"
(on the 3rd fret of the e String) for some strums.


     Dm G7 F9 Am F9 Am    Bb A  G
e||--1--1--0--0--0--0--|-----------||
B||--3--3--1--1--1--1--|-----------||
G||--2--0--0--2--0--2--|-----------||
D||--0--0--3--2--3--2--|--8--7--5--||
A||-----2--3--0--3--0--|--8--7--5--||
D||--------0-----0-----|--8--7--5--||

[ Tab from: http://www.guitartabs.cc/tabs/f/foo_fighters/exhausted_tab_ver_2.html ]
Chorus
     F G A F D F D  F D F D
e||----------------------------------||
b||----------------------------------||
g||----------------------------------||
d||--3-5-7-3-0-3-0--3-0-3-0----------||
a||--3-5-7-3-0-3-0--3-0-3-0----------||
e||--3-5-7-3-0-3-0--3-0-3-0-4-5-7~\--||

     F G A F D F D  F D F D
e||-------------------------------------------||
b||-------------------------------------------||
g||-------------------------------------------||
d||--3-5-7-3-0-3-0--3-0-3-0-------------------||
a||--3-5-7-3-0-3-0--3-0-3-0-------------------||
e||--3-5-7-3-0-3-0--3-0-3-0-4--5-7-10-10-10\--||




(Chorus)
F G A F D F D  F D F D
_______________________

There it is enjoy feel free to e-mail me with your comments.

David Miller: davidmiller161@msn.com
Comments