Foo Fighters - Everlong Chords & Tabs

 

Everlong Chords & Tabs

Foo Fighters Chords & Tabs

Version: 8 Type: Tab 0 ratings
1 star 2 stars 3 stars 4 stars 5 stars
comments

Everlong Tab

   
Everlong- by the Foo Fighters
Submitted by
MrWhite(mrwhite@smashing-pumpkins.com)

tabbed by weevil(sub@servtech.com)


drop-d tuning

-=main verse=-
e|----------------------------------------------------------------
B|----------------------------------------------------------------
G|-11-11-11-11-11-11-11-11-11-11-11-11-11-11-11-11-7-7-7-7-7--11--
D|-11-11-11-11-11-11-11-11-11-11-11-11-11-11-11-11-7-7-7-7-7--11--
A|-9--9--9--9--9--9--9--9--9--9--9--9--9--9--9--9--5-5-5-5-5--9---
D|-0--0--0--0--0--0--0--9--9--9--9--9--9--9--9--9--5-5-5-5-5--0---
    hello           ive waited here for you       everlong

-=little riff you can barely hear in background=-
e|----------------------------------------------------------------
B|----------------------------------------------------------------
G|-9---9---9--9---9---9----9h11-9---------------------------------
D|-11--11--11-11--11--11---11---11--------------------------------
A|-9---9---9--9---9---9----9----9---------------------------------
D|----------------------------------------------------------------
  |----palm muted--------------|

-=chorus=-
e|----------------------------------------------------------------
B|----------------------------------------------------------------
G|----------------------------------------------------------------
D|---0--0-0-0--0---0-------7--7--7--7--7--7--7------0-0-0-0--0--0-
A|-4-5--7-9-10-12--12------7--7--7--7--7--7--7----4-5-7-9-10-12-12
D|-------------------------7--7--7--7--7--7--7--------------------
                                               and i wonder
[ Tab from: http://www.guitartabs.cc/tabs/f/foo_fighters/everlong_tab_ver_8.html ]
e|----------------------------------------------------------------
B|----------------------------------------------------------------
G|----------------------------------------------------------------
D|---7--7--7--7--7--7--7--7---------0-0-0-0--0--0-----------------
A|---7--7--7--7--7--7--7--7-------4-5-7-9-10-12-12----------------
D|---7--7--7--7--7--7--7--7---------------------------------------
                        when i sing a long with you

e|----------------------------------------------------------------
B|----------------------------------------------------------------
G|-4----4--4----4---4---4-----------------------------------------
D|-4----4--4----4---4---4----------5-5-5-5-5-5--0-0-0-0-0-0-0-0---
A|-2----2--2----2---2---2----------5-5-5-5-5-5--0-0-0-0-0-0-0-0---
D|---------------------------------5-5-5-5-5-5--0-0-0-0-0-0-0-0---
          if everything could ever be this real forever

e|----------------------------------------------------------------
B|----------------------------------------------------------------
G|-4----4--4----4---4---4-----------------------------------------
D|-4----4--4----4---4---4----------5-5-5-5-5-5--0-0-0-0-0-0-0-0---
A|-2----2--2----2---2---2----------5-5-5-5-5-5--0-0-0-0-0-0-0-0---
D|---------------------------------5-5-5-5-5-5--0-0-0-0-0-0-0-0---
          if everything could ever be this good again

e|----------------------------------------------------------------
B|----------------------------------------------------------------
G|--4---4--4---4---4-----4---------------------7--7-7--7-7-7------
D|--4---4--4---4---4-----4-------5--5-5-5-5-5--7--7-7--7-7-7------
A|--2---2--2---2---2-----2-------5--5-5-5-5-5--5--5-5--5-5-5------
D|-------------------------------5--5-5-5-5-5---------------------
             the only thing ill ever ask of you youve got to promise

e|----------------------------------------------------------------
B|----------------------------------------------------------------
G|--------2-2-2-2-2-2---------------------------------------------
D|--------2-2-2-2-2-2--5--5-5-5-5-5-------------------------------
A|--------0-0-0-0-0-0--5--5-5-5-5-5-------------------------------
D|---------------------5--5-5-5-5-5-------------------------------
   not to stop   when i say when

Comments