Foo Fighters - Everlong Chords & Tabs

 

Everlong Chords & Tabs

Foo Fighters Chords & Tabs

Version: 2 Type: Bass Tab 2 ratings
1 star 2 stars 3 stars 4 stars 5 stars
comments

Everlong Bass Tab

Foo Fighters
Everlong 
(Bass)
 
Intro
G|-11-11-11-11-11-11-11-11-11-11-11-11-11-11-11-11—11-11-11-11-11
D|--------------------------------------------------------------------------------------
A|--------------------------------------------------------------------------------------
D|-12-12-12-12-12-12-12-12-12-12-12-12-12-12-12-12—9-9-9-9-9

G|-11-11-11-11-11-11-11-11-11-11-11—7-7-7-7-7-7-7-7—11-11-11-11
D|------------------------------------------------------------------------------------
A|------------------------------------------------------------------------------------
D|-9-9-9-9-9-9-9-9-9-9-9—5-5-5-5-5-5-5-5—9-9-9-9

G|-11-11-11-11-11-11-11-11-11-11-11-11----|
D|----------------------------------------------------|
A| ---------------------------------------------------|
D|-9-9-9-9-9-9-9-9-9-9-9-9--|

Verse 
G|-------------------------------------------------------------------------------------
D|-------------------------------------------------------------------------------------
A|---------------------------2-2-2-2-2-2-2-2-2-2------------------2-2-2-2-2-2-2
D|-0-0-0-0-0-0-0-0-0-0----------------------------5-5-5-5-5-5------------------

G|----------|
D|----------|
A|-2-2-2---|
D|----------|
[ Tab from: http://www.guitartabs.cc/tabs/f/foo_fighters/everlong_btab_ver_2.html ]
Chorus
G|------------------------------------------------------------------------------------
D|------------------------------------------------------------------------------------
A|------------------------------------------------------------------------------------
D|-0-0-0-0-0-0-0-0-0-0-0-0-0-0-0-0—7-7-7-7-7—0-0-0-0-0-0-0-0-0-0-0

G|--------------------------------------------------------------------------------------
D|--------------------------------------------------------------------------------------
A|------------------------------------------------------------------------2-2-2-2-2-2
D|-0-0-0-0-0—7-7-7-7-7-7--0-0-0-0-0-0-0-0-0-0-0-0-0-0-0-0---------------

G|------------------------------------------------------------------------------------
D|------------------------------------------------------------------------------------
A|-----------------------------------------------------------2-2-2-2-2-2-----------
D|--5-5-5-5-5-5--0-0-0-0-0-0-0-0-0-0-0-0-0-0-0-0-------------------------5-5-5-5

G|-------------------------------------------------------------------------------
D|-------------------------------------------------------------------------------
A|------------------------------------------------2-2-2-2-2-2-----------------
D|-5-5--0-0-0-0-0-0-0-0-0-0-0-0-0-0-0-0------------------------5-5-5-5-5-5-

G|----------------------------------------------------------------------|
D|----------------------------------------------------------------------|
A|-5-5-5-5-5-5—0-0-0-0-0-0--------------------------------------|
D|----------------------------------5-5-5-5-5-5-5-5-5-5-5-5-------|
Comments