Foo Fighters - Everlong Chords & Tabs

 

Everlong Chords & Tabs

Foo Fighters Chords & Tabs

Version: 1 Type: Bass Tab 2 ratings
1 star 2 stars 3 stars 4 stars 5 stars
comments

Everlong Bass Tab

This is my tabbing for Everlong by the Foo Fighters, 
it is inch perfect, try it and you'll see.
  
  Intro part - come in with the second guitar
G -----------|-------------|-----------|--------|-------------|
D -----------|-------------|-----------|--------|-------------|
A -5---------|-5-------5---|-----------|--------|-------------|
D -----------|-----------7-|-9------90-|5-------|9--9--9-9-9-9|

G ------------------|----------------|----------------|-----------------|-------------------|
D ------------------|----------------|----------------|-----------------|-------------------|
A ------------------|----------------|----------------|-----------------|-------------------|
D -9-9-9-9-9-9-9-9--|-0-0-0-0-0-0-0-0|-0-0-0-0-0-0-0-0|-9-9-9-9-9-9-9-0-|-9-9-9-9-9-9-9-9-0-|

G ------------------|----------------|----------------|
D ------------------|----------------|----------------|
A ------------------|----------------|----------------|
D -5-5-5-5-5-5-5-5--|-9-9-9-9-9-9-9-9|-9-9-9-9-9-9-9-9|

Verse - this applies for all of the verses

G ------------------|----------------|----------------|-------------------|
D ------------------|----------------|----------------|-------------------|
A ------------------|----------------|----------------|-------------------|
D -0-0-0-0-0-0-0-0--|-0-0-0-0-0-0-0-0|-9-9-9-9-9-9-9-0|-9-9-9-9-9-9-9-9-0-|

G ------------------|----------------|----------------|------------------|----------------|
D ------------------|----------------|----------------|------------------|----------------|
A ------------------|----------------|----------------|------------------|----------------|
D -5-5-5-5-5-5-5-5--|-9-9-9-9-9-9-9-9|-9-9-9-9-9-9-9-9|-0-0-0-0-0-0-0-0--|-0-0-0-0-0-0-0-0|


G ----------------|-------------------|----------------|----------------|----------------|
D ----------------|-------------------|----------------|----------------|----------------|
A ----------------|-------------------|----------------|----------------|----------------|
D-9-9-9-9-9-9-9-0-|-9-9-9-9-9-9-9-9-0-|-5-5-5-5-5-5-5-5|-9-9-9-9-9-9-9-9|-9-9-9-9-9-9-9-9|
[ Tab from: http://www.guitartabs.cc/tabs/f/foo_fighters/everlong_btab.html ]
G ------------------|----------------|----------------|
D ------------------|----------------|----------------|
A ------------------|----------------|----------------|play this twice
D -0-0-0-0-0-0-0-0--|-0-0-0-0-0-0-0-7|-7-7-7-7-7-7-7-7|
				      
			              if everything could feel this good.....
G ------------------|----------------|----------------|------------------|----------------|----------------|
D ------------------|----------------|----------------|------------------|----------------|----------------|
A ------------------|----------------|----------------|------------------|----------------|----------------|
D -0-0-0-0-0-0-0-9--|-0-0-0-0-0-0-0-9|-9-9-9-9-9-9-0-5|-5-5-5-5-5-5-0-0--|-0-0-0-0-0-0-0-0|-0-0-0-0-0-0-0-0|
  
  if anything could be this good
G ----------------|----------------|------------------|----------------|
D ----------------|----------------|------------------|----------------|
A ----------------|----------------|------------------|----------------|
D -9-9-9-9-9-9-0-5|-5-5-5-5-5-5-0-0|-0-0-0-0-0-0-0-0--|-0-0-0-0-0-0-0-0|
  
  the only thing......					stop when......
G ----------------|----------------|------------------|----------------|----------------|----------------|
D ----------------|----------------|------------------|----------------|----------------|----------------| play this twice
A ----------------|----------------|------------------|----------------|----------------|----------------|   at one point
D -9-9-9-9-9-9-0-5|-5-5-5-5-5-5-0-0|-0-0-0-0-0-0-0-7--|-7-7-7-7-7-7-7-7|-5-5-5-5-5-5-5-5|-5-5-5-5-5-5-5-5|

go back round to the verse when neccesary and repeat intro when neccesary, after repeating intro
play this
  
G ------------------|----------------|----------------|------------------|----------------|
D ------------------|----------------|----------------|------------------|----------------|
A ------------------|----------------|----------------|------------------|----------------|
D -5-5-5-5-5-5-5-5--|-9-9-9-9-9-9-9-9|-9-9-9-9-9-9-9-9|-0-0-0-0-0-0-0-0--|-0-0-0-0-0-0-0-0|

  if everything could feel this good.....
G ------------------|----------------|----------------|------------------|----------------|----------------|
D ------------------|----------------|----------------|------------------|----------------|----------------|
A ------------------|----------------|----------------|------------------|----------------|----------------|
D -0-0-0-0-0-0-0-9--|-0-0-0-0-0-0-0-9|-9-9-9-9-9-9-0-5|-5-5-5-5-5-5-0-0--|-0-0-0-0-0-0-0-0|-0-0-0-0-0-0-0-9|


G ----------------|----------------|----------------|----------------|
D ----------------|----------------|----------------|----------------|
A ----------------|----------------|----------------|----------------|
D-9-9-9-9-9-9-0-5-|-5-5-5-5-5-5-0-0|-0-0-0-0-0-0-0-0|-0-0-0-0-0-0-0-9|
   
the only thing i'll ever ask of you......
G ----------------|----------------|----------------|----------------|
D ----------------|----------------|----------------|----------------|
A ----------------|----------------|----------------|----------------|
D-9-9-9-9-9-9-0-5|-5-5-5-5-5-5-0-0-|-0-0-0-0-0-0-0-0|-0-0-0-0-0-0-0-7|

G ---------------|----------------|----------------|----------------|----------------|
D ---------------|----------------|----------------|----------------|----------------|
A ---------------|----------------|----------------|----------------|----------------|
D 7-7-7-7-7-7-7-7|-5-5-5-5-5-5-5-5|-5-5-5-5-5-5-5-5|-5-5-5-5-5-5-5-5|5---------------|

the end.

Comments