Foo Fighters - Everlong Acoustic Chords & Tabs

 

Everlong Acoustic Chords & Tabs

Foo Fighters Chords & Tabs

Version: 1 Type: Tab 1 rating
1 star 2 stars 3 stars 4 stars 5 stars
comments

Everlong Acoustic Tab

Everlong by the Foo Fighters
Song is in Drop-D tuning
Acoustic version arranged for 1 guitar

Intro/Verse:
------------

e|----------------------------------------| * Repeat, and replace
b|----------------------------------------|   the 0s with 9s
g|----------------------------------------|
d|----11---11-11---11-11---11---11-11-11--|
a|----9----9--9----9--9----9----9--9--9---|
D|0-0----0-------0-------0----0----------0|

Intro/Verse II:
--------------

e|----------------------------------------------| * Repeat, and replace
b|----------------------------------------------|   the 0s with 9s
g|----------------------------------------------|
d|------11----11-11----11-------11----11-11-11--|
a|------9-----9--9-----9--------9-----9--9--9---|
D|0--0--0--0--0--0--0--0--0--0--0--0--0--0--0--0|

Intro:
------

e|---------------------------------------------------|
b|---------------------------------------------------|
g|---------------------------------------------------|
d|----7-------7-------11-------11-------11-------11--|
a|----5-------5-------9--------9--------9--------9---|
D|5-5---5-5-5---5/9-9----9-9-9----9-9-9----9-9-9----9|

Verse:
------
[ Tab from: http://www.guitartabs.cc/tabs/f/foo_fighters/everlong_acoustic_tab.html ]
e|---------------------------------------------------------|
b|---------------------------------------------------------|
g|---------------------------------------------------------|
d|7---7-7---7-7-7---7---11---11-11-11-11---11-11-11---11-11|
a|5---5-5---5-5-5---5---9----9--9--9--9----9--9--9----9--9-|
D|5---5-5---5-5-5---5---9----9--9--9--9----9--9--9----9--9-|

Pre-Chorus:
-----------

e|--------------------------------------------------|
b|--------------------------------------------------|
g|6-6-6-7-7-7-9-9-9-10-10-10--10-12-10--------------|
d|-------------------------------------7--7-7--7-7-7|
a|4-4-4-5-5-5-7-7-7-9--9--9---9--10-9--7--7-7--7-7-7|
D|-------------------------------------7--7-7--7-7-7|

Chorus - part I:
----------------

e|---------------------------------------------------------------|
b|---------------------------------------------------------------|
g|4--4-4--4-4-4----------------7--7-7--7-7-7--7--7-7-------------|
d|4--4-4--4-4-4-5--5-5--5-5-5--7--7-7--7-7-7--7--7-7-------------|
a|2--2-2--2-2-2-5--5-5--5-5-5--5--5-5--5-5-5--5--5-5-------------|
D|--------------5--5-5--5-5-5--0--0-0--0-0-0--0--0-0-------------|

Chorus - part II:
-----------------

e|-------------------------------------------------------------------|
b|-------------------------------------------------------------------|
g|4--4-4--4-4-4----------------7-7-7-7-------------------------------|
d|4--4-4--4-4-4-5--5-5--5-5-5--7-7-7-7-7-7--7-7-7--7-7--5--5-5--5-5-5|
a|2--2-2--2-2-2-5--5-5--5-5-5--5-5-5-5-7-7--7-7-7--7-7--5--5-5--5-5-5|
D|--------------5--5-5--5-5-5--0-0-0-0-7-7--7-7-7--7-7--5--5-5--5-5-5|

(repeat the 5-5-5 chords 2 more times, the same timing)
Comments