Foo Fighters - End Over End Chords & Tabs

 

End Over End Chords & Tabs

Foo Fighters Chords & Tabs

Version: 1 Type: Tab 0 ratings
1 star 2 stars 3 stars 4 stars 5 stars
comments

End Over End Tab

Foo Fighters - End Over End

Artist: Foo Fighters
Album: In Your Honor
Genre: Rock

Tuning: eBGDAE


Verse
e||---------------|-----------------|-----------------|--------------||
B||--3--3--3---3--|--3--3--3--3--3--|--3--3--3--3--3--|--3--3--3--3--||
G||--2--2--2---2--|--2--2--2--2--2--|--2--2--2--2--2--|--2--2--2--2--||
D||--0--0--0---0--|--3--3--3--x--3--|--x--x--x--x--x--|--0--0--0--0--||
A||----------3----|-----------------|--3--3--3--0--3--|--x--x--x--x--||
E||---------------|-----------------|-----------------|--3--3--3--3--||


Pre-Chorus
e||--------------------------||    ||--------------------------||
B||--3--3--3--3--3--3--3--3--||    ||--3--3--3--3--3--3--3--3--||
G||--2--2--2--2--2--2--2--2--|| X2 ||--2--2--2--2--2--2--2--2--|| X2
D||--0--0--0--0--0--0--0--0--||    ||--x--x--x--x--x--x--x--x--||
A||--------------------------||    ||--3--3--3--3--3--3--3--3--||
E||--------------------------||    ||--------------------------||

e||--------------------------||    ||--------------------------||
B||--3--3--3--3--3--3--3--3--||    ||--------------------------||
G||--2--2--2--2--2--2--2--2--|| X2 ||--------------------------||
D||--0--0--0--0--0--0--0--0--||    ||--3--3--3--3--5--5--5--5--||
A||--------------------------||    ||--3--3--3--3--5--5--5--5--||
E||--------------------------||    ||--1--1--1--1--3--3--3--3--||


Chorus (just the chords here)
e||-----|-----|-----|-----||
B||--3--|--3--|--3--|--3--||
G||--2--|--2--|--2--|--2--||
D||--0--|--3--|--x--|--0--||
A||-----|-----|--3--|--x--||
E||-----|-----|-----|--3--||


Solo
e|----10-10----12-10----8-10--------8-10-------8-10-8-7--|
B|-10-------10-------10-----------8------8~--8-----------|
G|---------------------------10~-------------------------|
D|-------------------------------------------------------|
A|-------------------------------------------------------|
E|-------------------------------------------------------|


Repeat verse


Pre-Chorus again (new part added)
e|---------------------------------|
B|---------------------------------|
G|--11--11--11--11--11--11--11--9--|
D|--x---x---x---x---x---x---x---x--|
A|--9---9---9---9---9---9---9---7--|
E|---------------------------------|

e|------------------------------|
B|------------------------------|
G|--7--7--7--7--7--7--7--7--11--|
D|--x--x--x--x--x--x--x--x--x---|
A|--5--5--5--5--5--5--5--5--9---|
E|------------------------------|

e|------------------|--------------|
B|------------------|--------------|
G|--12--12--12--12--|--9--9--7--7--|
D|--x---x---x---x---|--x--x--x--x--|
A|--10--10--10--10--|--7--7--5--5--|
E|------------------|--------------|

e|---------------------------------|
B|---------------------------------|
G|--11--11--11--11--11--11--11--9--|
D|--x---x---x---x---x---x---x---x--|
A|--9---9---9---9---9---9---9---7--|
E|---------------------------------|
[ Tab from: http://www.guitartabs.cc/tabs/f/foo_fighters/end_over_end_tab.html ]
e|-----------------------------|
B|-----------------------------|
G|--7--7--7--7--7--7--7--7--7--|
D|--x--x--x--x--x--x--x--x--x--|
A|--5--5--5--5--5--5--5--5--5--|
E|-----------------------------|

e|--------------------------||
B|--------------------------||
G|--------------------------||
D|--3--3--3--3--5--5--5--5--||
A|--3--3--3--3--5--5--5--5--||
E|--1--1--1--1--3--3--3--3--||


Repeat Chorus (new lead part added)
e|--10--10--10--10--10--10--10--8---|--8---8---8---8---8---8---8---8---|
B|--10--10--10--10--10--10--10--10--|--10--10--10--10--10--10--10--10--|
G|----------------------------------|----------------------------------|
D|----------------------------------|----------------------------------|
A|----------------------------------|----------------------------------|
E|----------------------------------|----------------------------------|

e|--8--8--8--8--8--8--8--7--|--7--7--7--8--8--7--7---7---|
B|--8--8--8--8--8--8--8--8--|--8--8--8--8--8--8--10--10--|
G|--------------------------|----------------------------|
D|--------------------------|----------------------------|
A|--------------------------|----------------------------|
E|--------------------------|----------------------------|
Repeat this 4 times.


Lead break
e|--------------------------------------------------|
B|--------------------------------------------------|
G|--11--11--11--12--12--12--14--14--14--17--17--17--|
D|--x---x---x---x---x---x---x---x---x---x---x---x---|
A|--9---9---9---10--10--10--12--12--12--15--15--15--|
E|--------------------------------------------------|

e|-------------------------------------|
B|-------------------------------------|
G|--12--12--14--14--16--16--16b17--14--|
D|--x---x---x---x---x---x---x------x---|
A|--10--10--12--12--14--14--14-----12--|
E|-------------------------------------|

e|--------------------------------------------------|
B|--------------------------------------------------|
G|--11--11--11--12--12--12--14--14--14--17--17--17--|
D|--x---x---x---x---x---x---x---x---x---x---x---x---|
A|--9---9---9---10--10--10--12--12--12--15--15--15--|
E|--------------------------------------------------|

e|-------------------------------|
B|-------------------------------|
G|--9--11--10--9--7--5--7--9--7--|
D|--x--x---x---x--x--x--x--x--x--|
A|--7--9---8---7--5--3--5--7--5--|
E|-------------------------------|


Solo
e|-----------------------------------------------|
B|-----------------------------------------------|
G|-9----9-11---------12--9----9-11---------12----|
D|---12------10-9-10-------12------10-9-10-------|
A|-----------------------------------------------|
E|-----------------------------------------------|

e|-----------------------------------------------|
B|-----------------------------------------------|
G|-9----9-11--9----9-11--9----9-11--9----9-11b---|
D|---12---------12---------12---------12---------|
A|-----------------------------------------------|
E|-----------------------------------------------|
Comments