Foo Fighters - End Over End Chords & Tabs

 

End Over End Chords & Tabs

Foo Fighters Chords & Tabs

Version: 1 Type: Bass Tab

End Over End Bass Tab

   
-------------------------------------------------------------------------------
			     END OVER END - Foo Fighters
-------------------------------------------------------------------------------

Tabbed by:39/Smooth

Verse
G|----------------|
D|----------------|
A|-5-5-3-5--------|
D|----------0-0-0-|

G|----------------|
D|----------------|
A|-5-5-3-5--------|
D|----------0-0-0-|

G|----------------|
D|----------------|
A|-5-5-3-5--------|
D|----------0-0-0-|

G|--------------|
D|--------3-----|
A|-5-5-3----5-5-|
D|--------------|


Pre-Chorus/Interlude
G|-------------------------|
D|-------------------------|
A|-5-5-5-5-5-5-5-5-5-5-5-5-|
D|-------------------------|

G|-------------------------|
D|-------------------------|
A|-3-3-3-3-3-3-3-3-3-3-3-3-|
D|-------------------------|
[ Tab from: http://www.guitartabs.cc/tabs/f/foo_fighters/end_over_end_btab.html ]
G|-------------------------|
D|-------------------------|
A|-5-5-5-5-5-5-5-5-5-5-5-5-|
D|-------------------------|

G|-----------------|
D|-----------------|
A|-----------------|
D|-3-3-3-3-5-5-5-5-|


Chorus
G|-----------------|
D|-----------------|
A|-5-5-5-5-5-5-5-5-|
D|-----------------|

G|-----------------|
D|-----------------|
A|-----------------|
D|-3-3-3-3-3-3-3-3-|

G|-----------------|
D|-----------------|
A|-3-3-3-3-3-3-3-3-|
D|-----------------|

G|-----------------|
D|-----------------|
A|-----------------|
D|-5-5-5-5-5-5-5-5-|


Outro
G|-----------------|
D|-----------------| several times
A|-5-5-5-5-3-5-3-5-|
D|-----------------|

| /  slide up
| \  slide down
| h  hammer-on
| p  pull-off
| ~  vibrato
| +  harmonic
| x  Mute note
===============================================================================