Foo Fighters - Doll Chords & Tabs

 

Doll Chords & Tabs

Foo Fighters Chords & Tabs

Version: 2 Type: Bass Tab 0 ratings
1 star 2 stars 3 stars 4 stars 5 stars
comments

Doll Bass Tab

Song: Doll	 
Artist: Foo Fighters
Album: The colour and the shape

Tabbed by Serena Di Iulio  ICQ: 38559568
Member of the Bass Tab Archive Tabbing Army ~
http://www.basstabarchive.com



G||-------------------------|-------------------------|
D||--5---4------------------|--7----------7--7-----7--|
A||----------5--------------|-------------------------|
E||-------------3--3----3h4-|------5---8--------5-----|


                                                         
-----------------------------|--------------------------|
-----------------------------|--8----------8------------|
-----------------------------|---------------------8-7--|
--7---10---7--10--10--7--10--|------6---9-----6-9-------|

[ Tab from: http://www.guitartabs.cc/tabs/f/foo_fighters/doll_btab_ver_2.html ]
                                                     
------------------------|---------------------------|
--7---5-----------------|---------------------------|
----------7----------7--|--5------------------------|
-------------5---8------|--------7--7-5-7-5-3--0--0-|


                                                                
-----------------------------|---------------------------------|
-----------------------------|---------------------------------|
-----------------------------|-------------------------7-------|
--1--1-1--1-1-1-1--1-1--1-1--|--0---0-3-0-5-6-7-7-10-7---10-7--|


                                                  
----------------------------|-------------------||
----------------7---7-5-----|-------------------||
--------5h7-------------7-6-|--5----------------||
--5---5-----5---------------|-------------------||
Comments