Foo Fighters - Doa Chords & Tabs

 

Doa Chords & Tabs

Foo Fighters Chords & Tabs

Version: 2 Type: Tab 0 ratings
1 star 2 stars 3 stars 4 stars 5 stars
comments

Doa Tab

   
DOA
Foo Fighters
In Your Honour

hey, here's a quick version of the song
"dead on arrival" their next single i bet.

verse:
e--------------------|
b--1-1-1-1--1-1-1-1--|
g--2-2-2-2--0-0-0-0--|
d--0-0-0-0--2-2-2-2--|
a-----------3-3-3-3--|
d--------------------|
   a/c      c

bridge: F, G, F, G
[ Tab from: http://www.guitartabs.cc/tabs/f/foo_fighters/doa_tab_ver_2.html ]
chorus:
e------------------------------|
b---------------------0-0-0-0--|
g--2---------2--------7-4-7-9--|
d--2---------2--------7-4-7-9--|
a--0---------0--------5-2-5-7--|
d---------------------0-0-0-0--|

interlude:
e------------------------|
b------------------------|
g------------------------|
d--2-2-2-2---------------|
a--2-2-2-2-0-------------|
d--2-2-2-2-0-7--5~~7~~5--|

outro
e--------------------|
b--1h3-3-1--1p0-1-1--|
g--2-2-2-2--0-0-0-0--|
d--0-0-0-0--2-2-2-2--|
a-----------3-3-3-3--|
d--------------------|
   a/c      c

tabbed by snot_dawg
www.angelfire.com/indie/idlebutdeadly
Comments