Foo Fighters - Doa Chords & Tabs

 

Doa Chords & Tabs

Foo Fighters Chords & Tabs

Version: 1 Type: Tab 3 ratings
1 star 2 stars 3 stars 4 stars 5 stars
comments

Doa Tab

This is foo figheters latest song DOA

  Intro/Verse Guitar 1
 E|------------------------------|
 B|------------------------------|
 G|---5--5--5-5---5--5--5-5--5---|
 D|---7--7--7-7---7--7--7-7--7---| x10
 A|---0--0--0-0---5--5--5-5--5---|
 E|------------------------------|


  Pre-chorus Guitar 1
 E|-----------------------------------------------------|
 B|-----------------------------------------------------|
 G|-------0-----0-----0-----0-----0-----0-----0-----0---|
 D|---3-3---3-3---3-3---3-3---5-5---5-5---5-5---5-5-----|
 A|---3-3---3-3---3-3---3-3---5-5---5-5---5-5---5-5-----|
 E|---1-1---1-1---1-1---1-1---2-2---2-2---2-2---2-2-----|  x2

  Chorus Guitar 1
 E|------------------------------------------------|
 B|------------------------------------------------|
 G|------------------------------------------------|
 D|---7-7-7-7-7--7-7-7-7-7--7-7-7-7-7--7-7-7-7-7---|
 A|---7-7-7-7-7--9-9-9-9-9--7-7-7-7-7--9-9-9-9-9---|
 E|---5-5-5-5-5--5-5-5-5-5--5-5-5-5-5--5-5-5-5-5---|
						  x2
 E|------------------------------------------------|
 B|------------------------------------------------|
 G|---7-7-7-7-7--7-7-7-7-7--7-7-7-7-7--7-7-7-7-7---|
 D|---9-9-9-9-9--7-7-7-7-7--9-9-9-9-9--7-7-7-7-7---|
 A|---5-5-5-5-5--5-5-5-5-5--5-5-5-5-5--5-5-5-5-5---|
 E|------------------------------------------------|

  Chorus Guitar 2
 E|----------------------------------------------------------|
 B|----------------------------------------------------------| 
 G|---9-9-9-9-9--11-11-11-11-11--9-9-9-9-9--11-11-11-11-11---|   
 D|---x-x-x-x-x--x--x--x--x--x---x-x-x-x-x--x--x--x--x--x----|     
 A|---7-7-7-7-7--9--9--9--9--9---7-7-7-7-7--9--9--9--9--9----|	    
 E|----------------------------------------------------------|		
								  x2
 E|--------------------------------------------------------------------|
 B|--------------------------------------------------------------------|
 G|---14-14-14-14-14--16-16-16-16-16--14-14-14-14-14--16-16-16-16-16---|
 D|---x--x--x--x--x---x--x--x--x--x---x--x--x--x--x---x--x--x--x--x----|
 A|---12-12-12-12-12--14-14-14-14-14--12-12-12-12-12--14-14-14-14-14---|
 E|--------------------------------------------------------------------|

  Verse 1 Guitar 1
 E|------------------------------|
 B|------------------------------|
 G|---5--5--5-5---5--5--5-5--5---|
 D|---7--7--7-7---7--7--7-7--7---| x4
 A|---0--0--0-0---5--5--5-5--5---|
 E|------------------------------|

 E|--------------------------------|
 B|--------------------------------|
 G|---5h7-5h7-5h7--5-5--5-5--5-5---|
 D|---7---7---7----7-7--7-7--7-7---| x4
 A|---0---0---0----5-5--5-5--5-5---|
 E|--------------------------------|

  Pre-chorus Guitar 1
 E|-----------------------------------------------------|
 B|-----------------------------------------------------|
 G|-------0-----0-----0-----0-----0-----0-----0-----0---|
 D|---3-3---3-3---3-3---3-3---5-5---5-5---5-5---5-5-----|
 A|---3-3---3-3---3-3---3-3---5-5---5-5---5-5---5-5-----|
 E|---1-1---1-1---1-1---1-1---2-2---2-2---2-2---2-2-----| x2

  Chorus Guitar 1
 E|------------------------------------------------|
 B|------------------------------------------------|
 G|------------------------------------------------|
 D|---7-7-7-7-7--7-7-7-7-7--7-7-7-7-7--7-7-7-7-7---|
 A|---7-7-7-7-7--9-9-9-9-9--7-7-7-7-7--9-9-9-9-9---|
 E|---5-5-5-5-5--5-5-5-5-5--5-5-5-5-5--5-5-5-5-5---|
						   x2
 E|------------------------------------------------|
 B|------------------------------------------------|
 G|---7-7-7-7-7--7-7-7-7-7--7-7-7-7-7--7-7-7-7-7---|
 D|---9-9-9-9-9--7-7-7-7-7--9-9-9-9-9--7-7-7-7-7---|
 A|---5-5-5-5-5--5-5-5-5-5--5-5-5-5-5--5-5-5-5-5---|
 E|------------------------------------------------|

  Chorus Guitar 2
 E|----------------------------------------------------------|
 B|----------------------------------------------------------| 
 G|---9-9-9-9-9--11-11-11-11-11--9-9-9-9-9--11-11-11-11-11---|   
 D|---x-x-x-x-x--x--x--x--x--x---x-x-x-x-x--x--x--x--x--x----|     
 A|---7-7-7-7-7--9--9--9--9--9---7-7-7-7-7--9--9--9--9--9----|	     
 E|----------------------------------------------------------|	
								 x2
 E|--------------------------------------------------------------------|
 B|--------------------------------------------------------------------|
 G|---14-14-14-14-14--16-16-16-16-16--14-14-14-14-14--16-16-16-16-16---|
 D|---x--x--x--x--x---x--x--x--x--x---x--x--x--x--x---x--x--x--x--x----|
 A|---12-12-12-12-12--14-14-14-14-14--12-12-12-12-12--14-14-14-14-14---|
 E|--------------------------------------------------------------------|
[ Tab from: http://www.guitartabs.cc/tabs/f/foo_fighters/doa_tab.html ]
  Solo Guitar 1
 E|------------------------------|
 B|------------------------------|
 G|------------------------------|
 D|------------------------------|
 A|---5-7-7-5-7-5----------------|
 E|---------------7-5--5-3-5-3---| x6

  Verse 2 Guitar 1
 E|--------------------------------|
 B|--------------------------------|
 G|---5h7-5h7-5h7--5-5--5-5--5-5---|
 D|---7---7---7----7-7--7-7--7-7---| x8
 A|---0---0---0----5-5--5-5--5-5---|
 E|--------------------------------|

  Pre-chorus 2 Guitar 1
 E|----------------------------------------|
 B|----------------------------------------|
 G|----------------------------------------|
 D|---3-3-3-3-3-3-3-3--5-5-5-5-5-5-5-5-----|
 A|---3-3-3-3-3-3-3-3--5-5-5-5-5-5-5-5-----|
 E|---1-1-1-1-1-1-1-1--2-2-2-2-2-2-2-2-----|

 E|---------------------------------------------------|
 B|---------------------------------------------------|
 G|---------------------------------------------------|
 D|---3-3-x-3-3-x-3-3-x-3-3-x-5-5-x-5-5-x-5-5-x-5-5---|
 A|---3-3-x-3-3-x-3-3-x-3-3-x-5-5-x-5-5-x-5-5-x-5-5---|
 E|---1-1-x-1-1-x-1-1-x-1-1-x-2-2-x-2-2-x-2-2-x-2-2---|

  Chorus Guitar 1
 E|------------------------------------------------|
 B|------------------------------------------------|
 G|------------------------------------------------|
 D|---7-7-7-7-7--7-7-7-7-7--7-7-7-7-7--7-7-7-7-7---|
 A|---7-7-7-7-7--9-9-9-9-9--7-7-7-7-7--9-9-9-9-9---|
 E|---5-5-5-5-5--5-5-5-5-5--5-5-5-5-5--5-5-5-5-5---|
						 x2
 E|------------------------------------------------|
 B|------------------------------------------------|
 G|---7-7-7-7-7--7-7-7-7-7--7-7-7-7-7--7-7-7-7-7---|
 D|---9-9-9-9-9--7-7-7-7-7--9-9-9-9-9--7-7-7-7-7---|
 A|---5-5-5-5-5--5-5-5-5-5--5-5-5-5-5--5-5-5-5-5---|
 E|------------------------------------------------|

  Chorus Guitar 2
 E|----------------------------------------------------------|
 B|----------------------------------------------------------|  
 G|---9-9-9-9-9--11-11-11-11-11--9-9-9-9-9--11-11-11-11-11---|    
 D|---x-x-x-x-x--x--x--x--x--x---x-x-x-x-x--x--x--x--x--x----|      
 A|---7-7-7-7-7--9--9--9--9--9---7-7-7-7-7--9--9--9--9--9----|	      
 E|----------------------------------------------------------|		
								   x2
 E|--------------------------------------------------------------------|
 B|--------------------------------------------------------------------|
 G|---14-14-14-14-14--16-16-16-16-16--14-14-14-14-14--16-16-16-16-16---|
 D|---x--x--x--x--x---x--x--x--x--x---x--x--x--x--x---x--x--x--x--x----|
 A|---12-12-12-12-12--14-14-14-14-14--12-12-12-12-12--14-14-14-14-14---|
 E|--------------------------------------------------------------------|

  Chorus Guitar 1
 E|------------------------------------------------|
 B|------------------------------------------------|
 G|------------------------------------------------|
 D|---7-7-7-7-7--7-7-7-7-7--7-7-7-7-7--7-7-7-7-7---|
 A|---7-7-7-7-7--9-9-9-9-9--7-7-7-7-7--9-9-9-9-9---|
 E|---5-5-5-5-5--5-5-5-5-5--5-5-5-5-5--5-5-5-5-5---|

 E|----------------------------------------------------------------------|
 B|----------------------------------------------------------------------|
 G|---7-7-7-7-7--7-7-7-7-7--7-7-7-7-7--7-7-7-7-7--7-7-7-7-7--7-7-7-7-7---|
 D|---9-9-9-9-9--7-7-7-7-7--9-9-9-9-9--7-7-7-7-7--9-9-9-9-9--7-7-7-7-7---|
 A|---5-5-5-5-5--5-5-5-5-5--5-5-5-5-5--5-5-5-5-5--5-5-5-5-5--5-5-5-5-5---|
 E|----------------------------------------------------------------------|

  Chorus Guitar 2
 E|----------------------------------------------------------|
 B|----------------------------------------------------------|
 G|---9-9-9-9-9--11-11-11-11-11--9-9-9-9-9--11-11-11-11-11---|
 D|---x-x-x-x-x--x--x--x--x--x---x-x-x-x-x--x--x--x--x--x----|
 A|---7-7-7-7-7--9--9--9--9--9---7-7-7-7-7--9--9--9--9--9----|
 E|----------------------------------------------------------|

 E|--------------------------------------------------------------------|
 B|--------------------------------------------------------------------|
 G|---14-14-14-14-14--16-16-16-16-16--14-14-14-14-14--16-16-16-16-16---|
 D|---x--x--x--x--x---x--x--x--x--x---x--x--x--x--x---x--x--x--x--x----|
 A|---12-12-12-12-12--14-14-14-14-14--12-12-12-12-12--14-14-14-14-14---|
 E|--------------------------------------------------------------------|

 E|------------------------------------|
 B|------------------------------------|
 G|---14-14-14-14-14--16-16-16-16-16---|
 D|---x--x--x--x--x---x--x--x--x--x----|
 A|---12-12-12-12-12--14-14-14-14-14---|
 E|------------------------------------|

  Outro Guitar 1
 E|--------------------------------|	x2
 B|--------------------------------|	     
 G|---5h7-5h7-5h7--5-5--5-5--5-5---|	     
 D|---7---7---7----7-7--7-7--7-7---|      
 A|---0---0---0----5-5--5-5--5-5---|      
 E|--------------------------------|	      
						  
Comments