Foo Fighters - Doa Chords & Tabs

 

Doa Chords & Tabs

Foo Fighters Chords & Tabs

Version: 1 Type: Bass Tab 0 ratings
1 star 2 stars 3 stars 4 stars 5 stars
comments

Doa Bass Tab

Tabbed By: DanThompson
e-mail: danthompson@lycos.co.uk

Some of the timing might be wrong, and some of it may not be exactly what is played but
it seems to go with it. Considering this is 100% ear transcribed (by an idiot) it doesn't
seem too bad other than it being a bit scrappy. Comments and ratings welcome! Just let me
know I haven't wasted my time.

VERSE 1
G--------------------
D--------------------
A--------------------  (guitar intro) 5-5--3--5-5--3
E-------------------- 

("...I went down...")

G------------------------------------------ }
D------------------------------------------ }
A----------------------5-5-5-5--0--5-5-5-5- }- x4
E/5-(0)--5-(0)--5-(0-0)-------------------- }

BRIDGE
("..bet your life...")

G-----------------------------------------------------------   }
D-----------------------------------------------------------   } - x2
A------------------------------5-5-x--5-5-x--5-5-x--5-5-x--    }
E-1-1-x--1-1-x--1-1-x--1-1-x--------------------------------   }

CHORUS
 ("...it's a shame...")

G----------------------------------  }
D------------------7-7-7-7-7-7-7-7-  } - x 2                                                     
A----------------------------------  }
E-5-5-5-5-5-5-5-5------------------  }

("...alive...")

G--------------------------------------------------------|-------------
D--------------------------------------------------------|-------------
A-5-5-5--5-5-5---------------5-5-5--5-5-5----------------|-------------
E---------------7-7-7--7-7-7---------------7-7-7--7-7-7--|-5~-5/h0-----
(Play last two sets of tabs twice. After second time of each, play ^ this to end chorus)

VERSE 2
("...finished...")

G-------------------------------------------- }
D-------------------------------------------- }
A----------------------5-5-5-5--(0)--5-5-5-5- }
E5-(0)--5-(0)--5-(0-0)----------------------- } - x8

BRIDGE
("...nevermind...")
G-----------------------------------------------------------   }
D-----------------------------------------------------------   } - x2
A------------------------------5-5-x--5-5-x--5-5-x--5-5-x---   }
E-1-1-x--1-1-x--1-1-x--1-1-x--------------------------------   }

CHORUS
("...it's a shame...")
[ Tab from: http://www.guitartabs.cc/tabs/f/foo_fighters/doa_btab.html ]
G----------------------------------  }
D------------------7-7-7-7-7-7-7-7-  } - x 2                                                     
A----------------------------------  }
E-5-5-5-5-5-5-5-5------------------  }

("...alive...")

G--------------------------------------------------------| 
D--------------------------------------------------------|  
A-5-5-5--5-5-5---------------5-5-5--5-5-5----------------|
E---------------7-7-7--7-7-7---------------7-7-7--7-7-7--|
(extra measures for extended "..tiiiiiime.." haha then go into...)

POST CHORUS
("..aint' no way..")

G-------------------------------- }
D-------------------------------- }
A---7-7-5-7-5-------------------- } - x6 then back to
E-0-----------7---5--5--3--5-5--3 }

PART OF VERSE
("...take a good hard look...")

G--------------------------------------------- }
D--------------------------------------------- }
A----------------------5-5-5-5--(0)--5-5-5-5-- }
E-5-(0)--5-(0)--5-(0-0)----------------------- } - x4

BRIDGE 2
("...nevermind...")
G---------------------------------------------------------------
D---------------------------------------------------------------  
A------------------------------5-5-5---5-5-5---5-5-5---5-5-5----   
E-1-1-1--1-1-1--1-1-1--1-1-1------------------------------------

G--------------------------------------------------------
D--------------------------------------------------------
A-----------------------------5-5---5-5---5-5---5-5------
E-1-1----1-1----1-1----1-1-------------------------------

CHORUS
("...it's a shame...")

G----------------------------------  }
D------------------7-7-7-7-7-7-7-7-  } - x 2                                                     
A----------------------------------  }
E-5-5-5-5-5-5-5-5------------------  }

("...alive...")

G--------------------------------------------------------| 
D--------------------------------------------------------|  
A-5-5-5--5-5-5---------------5-5-5--5-5-5----------------|
E---------------7-7-7--7-7-7---------------7-7-7--7-7-7--|
(All of chorus x3, then extend last few measures and go into outro) 

OUTRO

G------------------------------------------ }
D------------------------------------------ }
A------------------------5--5-0---5-5-0---- }- x3
E/5-(0)--5-(0)--5-(0-0)-------------------- }

Finish on

G-------------------------
D-------------------------
A-----------------------5-
E-5-(0)--5-(0)--5-(0-0)---
Comments