Foo Fighters - Disenchanted Lullaby Chords & Tabs

 

Disenchanted Lullaby Chords & Tabs

Foo Fighters Chords & Tabs

Version: 2 Type: Tab 0 ratings
1 star 2 stars 3 stars 4 stars 5 stars
comments

Disenchanted Lullaby Tab

   
Foo Fighters - Disenchanted Lullaby
Great New Track from Their New Album "One By One"



Intro/Verse

B7 shape

E -2----------2--------------
B -0----------0--------------
G -2----------2-------------- 
D ---------------------------
A -2--------0-2--------------
E ---------------------------

   X1   


Breakdown Riff     

E ------------------------
B ------------------------
G ------------------------        Play this Riff before the chorus
D ------------------------        comes in and keep repeating for a few times
A ---0-0-1-2--------------
E ------------------------


Chorus bit
[ Tab from: http://www.guitartabs.cc/tabs/f/foo_fighters/disenchanted_lullaby_tab_ver_2.html ]
E --2---2---2---2-------2---2---2---2-------------------0-0--------------------
B --0---0---0---0-------0---0---0---0------------------0---0-------------------
G --2---2---2---2-------2---2---2---2---------------------------7--7--7--7--7-- 
D --1---1---1---1-------1---1---1---1------------2--------------7--7--7--7--7--
A --2---2---2---2-------2---2---2---2------------2--------------5--5--5--5--5--
E -----------------------------------------------0-----------------------------

Tabbed by James Graham (burnaway_fighter)

Well thats pretty much, ive only tabbed 1 guitar but this my rough version
of the song at the moment, so ive just tabbed the main parts (apart from the bridge and solo) 
if any one has any corrections then e-mail on 
guitardude17_uk@yahoo.co.uk
Comments