Foo Fighters - Deepest Blues Are Black Chords & Tabs

 

Deepest Blues Are Black Chords & Tabs

Foo Fighters Chords & Tabs

Version: 1 Type: Bass Tab

Deepest Blues Are Black Bass Tab

   
-------------------------------------------------------------------------------
			     THE DEEPEST BLUES ARE BLACK - Foo Fighters
-------------------------------------------------------------------------------

Tabbed by:39/Smooth

Pre-Verse
G|----------------|
D|----------------|
A|----------------|
E|-1-1-1-1-1-1-1--|


Verse
G|-----------------------------------------------------------------|
D|-----------------------------------------------------------------|
A|------------------------------------------11111111111------------|
E|--1111111-44444444-11111111-444444444444--------------111111111--|

G|--------------------------|
D|--------------------------|
A|--------------------------|
E|--444444444--11111111111--|

[ Tab from: http://www.guitartabs.cc/tabs/f/foo_fighters/deepest_blues_are_black_btab.html ]
Pre-Chorus
G|------------------------|
D|------------------------| (Bunch of times)
A|------------------------|
E|--10101101011010110101--|


Chorus
G|---------------------------------------------|
D|---------------------------------------------| (x2)
A|-----------------------1-1-111-1--0-0-000-0--|
E|--1-1-111-1--0-0-000-0-----------------------|

G|------------------------|
D|------------------------|
A|------------------------|
E|--3-3-333-3--6-6-666-6--|


Bridge
G|-------------------------------------|
D|-------------------------------------| (x2)
A|---------------------------11111111--|
E|--1111111--4444444--33333------------|

G|----------------|
D|----------------|
A|----------------|
E|--444444444444--|

Chorus (x2)
Pre-Verse

| /  slide up
| \  slide down
| h  hammer-on
| p  pull-off
| ~  vibrato
| +  harmonic
| x  Mute note
===============================================================================