Foo Fighters - Breakout Chords & Tabs

 

Breakout Chords & Tabs

Foo Fighters Chords & Tabs

Version: 6 Type: Tab 0 ratings
1 star 2 stars 3 stars 4 stars 5 stars
comments

Breakout Tab

-------------------------------------------------------------------------------
			     Breakout  Foo Fighters
-------------------------------------------------------------------------------

By: Bryan Thorsell

Intro: (Come in When Drums do)
e|-0--0--0--0--0--0--0--0--0--0--0--0--0--0--0--0|
B|-0--0--0--0--0--0--0--0--0--0--0--0--0--0--0--0|
G|-4--4--4--4--4--4--4--4--4--4--4--4--4--4--4--4|  Repeat once
D|-4--4--4--4--4--4--4--4--3--3--3--3--2--2--2--2|
A|-2--2--2--2--2--2--2--2--2--2--2--2--2--2--2--2|
E|-----------------------------------------------|
[ Tab from: http://www.guitartabs.cc/tabs/f/foo_fighters/breakout_tab_ver_6.html ]
Refrain:
e|--0--0--0--0--0--0--00|      --3--3--3--3--0--0--0--0|
B|--0--0--0--0--0--0--00|      --0--0--0--0--0--0--0--0|
G|--4--4--4--4--0--0--00|Repeat--0--0--0--0--0--0--0--0|All over again
D|--4--4--4--4--2--2--22|      --0--0--0--0--2--2--2--2|
A|--2--2--2--2--2--2--22|      --2--2--2--2--2--2--2--2|On the 2nd time repeat
E|-----------------------|      --3--3--33-------------|part 2

Verse:
e|-0--0--0--0--0--0--0--0--0--0--0--0--0--0--0--0|
B|-0--0--0--0--0--0--0--0--0--0--0--0--0--0--0--0|
G|-4--4--4--4--4--4--4--4--4--4--4--4--4--4--4--4|  Play 5 times
D|-4--4--4--4--4--4--4--4--3--3--3--3--2--2--2--2|
A|-2--2--2--2--2--2--2--2--2--2--2--2--2--2--2--2|
E|-----------------------------------------------|

Refrain

When he starts screaming on the refrain its:
e|--0--0--0--0--0--0--0--0|
B|--0--0--2--2--0--0--0--0|
G|--4--4--2--2--4--4--0--0|
D|--4--4--2--2--4--4--2--2|
A|--2--2--0--0--2--2--2--2|
E|--------0--0------------|

Verse til the end
Play part above this to end the song
Comments