Foo Fighters - Breakout Chords & Tabs

 

Breakout Chords & Tabs

Foo Fighters Chords & Tabs

Version: 3 Type: Bass Tab 0 ratings
1 star 2 stars 3 stars 4 stars 5 stars
comments

Breakout Bass Tab

tab by; steven harrington
FOO FIGHTERS
Break Out
Standard Tunning
Intro with no bass

"break out..." (Chorus)
G----------------------------------------------|
D----------------------------------------------|
A-22--22------------22--22---------------------|
E----------33--33------------00--00---2--------|

"I donīt wanna..."
G----------------------------------------------|
D----------------------------------------------|
A----------------------------------------------|
E-33333--5---00000--5---33333--5---00000---5---|

"you know you make me..."
G----------------------------------------------|
D----------------------------------------------|
A-22--22------------22--22-/7\-----------------|
E----------33--33----------------00--00---2----|

"I donīt wanna..."
G----------------------------------------------|
D----------------------------------------------|
A----------------------------------------------|
E-33333--5---00000--5---33333--5---00000---5---|

Break (*= play 14 times, #= play 15 times)
G-------------------------------------------------|
D-------------------------------------------------|
A--2*-/4------2*-/4-------------------------------|
E---------0#---------0#---------------------------|

"you can see..."
G----------------------------------------------|
D----------------------------------------------|
A--2*-/4------2*-/4---777-5-7--7-5---5---------|
E---------0#-----------------------7---7-5\----|

"..therapy..."
G-----------------------------------------------|
D-----------------------------------------------|
A-----------------------------------------------|
E-3*-5--0#--------------------------------------|

"I may be crazy..." (x2)
G----------------------------------------------|
D----------------------------------------------|
A-2---/4--7---------4-----------3--------------|
E----------------------------------------------|

"burning in the blast..." (&= play 7 times)
G---------------------------------------------|
D---------------------------------------------|
A-2&----4&-3&--2&------4&--3------------------|
E----0&------------0&-------------------------|

"you know you make me..."
G----------------------------------------------|
D----------------------------------------------|
A-22--22------------22222-/7\------------------|
E----------33--33---------------00--00---2-----|
[ Tab from: http://www.guitartabs.cc/tabs/f/foo_fighters/breakout_btab_ver_3.html ]
"I donīt wanna..."
G----------------------------------------------|
D----------------------------------------------|
A----------------------------------------------|
E-33333--5---00000--5---33333--5---00000---5---|

"you know you make me..."
G----------------------------------------------|
D----------------------------------------------|
A-22--22------------22--22-/7----7-5-----------|
E----------33--33--------------------7-5-------|

"I donīt wanna..." (x2)
G----------------------------------------------|
D----------------------------------------------|
A----------------------------------------------|
E-33333--5---00000--5---33333--5---00000---5---|

"BREAKOOOOOOOUT" (x2)
G-------------------------------------------------|
D-----------------------------------6--7/9\-------|
A--22--00--44--77-7-7--22--00--44-----------------|
E-------------------------------------------------|

"BREAKOOOOOOOUT" (x4)
G------------------/11-11----11\------------------|
D-------------------------11----------------------|
A--22--00--44--77---------------------------------|
E-------------------------------------------------|

"you know you make me..."
G----------------------------------------------|
D----------------------------------------------|
A-22--22------------22--22-/7----7-5-----------|
E----------33--33--------------------7-5-------|

"I donīt wanna..."
G----------------------------------------------------|
D--------5-2---------2-0----------5-2---------2-0----|
A------------5------------------------5--------------|
E-33333---------0000-------33333---------0000--------|

"you know you make me..."
G----------------------------------------------|
D----------------------------------------------|
A-22--22------------22--22-/7----7-5-----------|
E----------33--33--------------------7-5-------|

"I donīt wanna..."  (x2)
G----------------------------------------------------|
D--------5-2---------2-0----------5-2---------2-0----|
A------------5------------------------5--------------|
E-33333---------0000-------33333---------0000--------|

"you know you make me.."
G-------------------------------------------------|
D-------------------------------------------------|
A--22--00--44--77-7-7--22--00--44--77-7-7---------|
E-------------------------------------------------|

G------------------/11-11----11\------------------|
D-------------------------11----------------------|
A--22--00--44--77---------------------------------|
E-------------------------------------------------|

G--------------------|
D--------------------|
A--22--00--44--77----|
E--------------------|

if it is wrong email my at snakeboyone@aol.com
Comments