Foo Fighters - Big Me Chords & Tabs

 

Big Me Chords & Tabs

Foo Fighters Chords & Tabs

Version: 4 Type: Bass Tab

Big Me Bass Tab

G-------------------------------------------------------------------------------|
D---------3s5-----------------------------------------------------3s5-----------|
A--3---3------0-0--5s7--0-0------------------------------2-3---3------0-0--5s7--|
E----3-----------------------3-4--0--3--5--3--11111111-------3------------------|

G--------------------------------|
D--------------------------------|
A-0-0----------------------------|
E------3-4--0--3--5--3--11111111-|
[ Tab from: http://www.guitartabs.cc/tabs/f/foo_fighters/big_me_btab_ver_4.html ]