Foo Fighters - Best Of You Chords & Tabs

 

Best Of You Chords & Tabs

Foo Fighters Chords & Tabs

Version: 6 Type: Tab

Best Of You Tab

FOO FIGHTERS - BEST OF YOU

Transcribed by Juan Angel De Camillis.

This is the best, the best, the best song ever!!


*INTRO/VERSE
Gtr 1(Dave - Clean)
e|-0-0-0-0-0-0-0-0-|-0-0-0-0-0-0-0-0-|-0-0-0-0-0-0-0-0-|-0-0-0-0-0-0-0-0-|   
B|-0-0-0-0-0-0-0-0-|-0-0-0-0-0-0-0-0-|-0-0-0-0-0-0-0-0-|-0-0-0-0-0-0-0-0-|   
G|-4-4-4-4-4-4-4-4-|-4-4-4-4-4-4-4-4-|-4-4-4-4-4-4-4-4-|-4-4-4-4-4-4-4-4-|
D|-2-2-2-2-2-2-2-2-|-2-2-2-2-2-2-2-2-|-2-2-2-2-2-2-2-2-|-2-2-2-2-2-2-2-2-|      
A|-4-4-4-4-4-4-4-4-|-4-4-4-4-4-4-4-4-|-0-0-0-0-0-0-0-0-|-0-0-0-0-0-0-0-0-|     
E|-----------------|-----------------|-----------------|-----------------| 
  
e|-0-0-0-0-0-0-0-0-|-0-0-0-0-0-0-0-0-|-0-0-0-0-0-0-0-0-|-0-0-0-0-0-0-0-0-|   
B|-0-0-0-0-0-0-0-0-|-0-0-0-0-0-0-0-0-|-0-0-0-0-0-0-0-0-|-0-0-0-0-0-0-0-0-|   
G|-4-4-4-4-4-4-4-4-|-4-4-4-4-4-4-4-4-|-4-4-4-4-4-4-4-4-|-4-4-4-4-4-4-4-4-|
D|-2-2-2-2-2-2-2-2-|-2-2-2-2-2-2-2-2-|-2-2-2-2-2-2-2-2-|-2-2-2-2-2-2-2-2-|      
A|-4-4-4-4-4-4-4-4-|-4-4-4-4-4-4-4-4-|-0-0-0-0-0-0-0-0-|-0-0-0-0-0-0-0-0-|     
E|-----------------|-----------------|-----------------|-----------------| 


*PRE CHORUS
Gtr 1
e|-0-0-0-0-0-0-0-0-|-0-0-0-0-0-0-0-0-|-0-0-0-0-0-0-0-0-|-0-0-0-0-0-0-0-0-|
B|-0-0-0-0-0-0-0-0-|-0-0-0-0-0-0-0-0-|-0-0-0-0-0-0-0-0-|-0-0-0-0-0-0-0-0-|
G|-4-4-4-4-4-4-4-4-|-4-4-4-4-4-4-4-4-|-4-4-4-4-4-4-4-4-|-4-4-4-4-4-4-4-4-|
D|-4-4-4-4-4-4-4-4-|-4-4-4-4-4-4-4-4-|-2-2-2-2-2-2-2-2-|-2-2-2-2-2-2-2-2-|
A|-2-2-2-2-2-2-2-2-|-2-2-2-2-2-2-2-2-|-0-0-0-0-0-0-0-0-|-0-0-0-0-0-0-0-0-|
E|-----------------|-----------------|-----------------|-----------------|
    "Will you born to resist or be abused?..."
Gtr 2
e|----------0------|-------0---------|-------0---------|-------0---------|
B|-----------0-----|---------0-------|---------0-------|---------0-------|
G|-------4---------|-----4-----------|-----4-----------|-----4-----------|
D|-----4-----------|---4-------------|---2-------------|---2-------------|
A|---2-------------|-2---------------|-0---------------|-0---------------|
E|-----------------|-----------------|-----------------|-----------------|


*CHORUS
Gtr 1 (x3)  (Soft)
e|-0-0-0-0-0-0-0-0-|-0-0-0-0-0-0-0-0-|-0-0-0-0-0-0-0-0-|-0-0-0-0-0-0-0-0-|
B|-0-0-0-0-0-0-0-0-|-0-0-0-0-0-0-0-0-|-0-0-0-0-0-0-0-0-|-0-0-0-0-0-0-0-0-|
G|-4-4-4-4-4-4-4-4-|-4-4-4-4-4-4-4-4-|-4-4-4-4-4-4-4-4-|-4-4-4-4-4-4-4-4-|
D|-2-2-2-2-2-2-2-2-|-1-1-1-1-1-1-1-1-|-2-2-2-2-2-2-2-2-|-2-2-2-2-2-2-2-2-|
A|-4-4-4-4-4-4-4-4-|-2-2-2-2-2-2-2-2-|-0-0-0-0-0-0-0-0-|-0-0-0-0-0-0-0-0-|
E|-----------------|-----------------|-----------------|-----------------|
   " It's someone getting the best, the best, the best of you?..."
Gtr 2
e|----------0------|----------0------|----------0------|----------0------|
B|------------0----|------------0----|------------0----|------------0----|
G|--------4--------|--------4--------|--------4--------|--------4--------|
D|------2----------|------1----------|------2----------|------2----------|
A|----4------------|----2------------|----0------------|----0------------|
E|-----------------|-----------------|-----------------|-----------------|

Gtr 3 
e|-----------------|-----------------|-----------------|-----------------|
B|-----------------|-----------------|-----------------|-----------------|
G|-6---------------|-8---------------|-9---------------|-(9)-------------|
D|-x---------------|-x---------------|-x---------------|-(x)-------------|
A|-4---------------|-6---------------|-7---------------|-(7)-------------|
E|-----------------|-----------------|-----------------|-----------------|

Gtr 4
e|-----------------|-----------------|-----------------|-----------------|
B|-----------------|-----------------|-----------------|-----------------|
G|-6---------------|-4---------------|-----------------|-----------------|
D|-x---------------|-x---------------|-7---------------|-(7)-------------|
A|-4---------------|-2---------------|-x---------------|-(x)-------------|
E|-----------------|-----------------|-5---------------|-(5)-------------|

*PRE VERSE
Gtr 1
e|-0-0-0-0-0-0-0-0-|-0-0-0-0-0-0-0-0-|-0-0-0-0-0-0-0-0-|-0-0-0-0-0-0-0-0-|
B|-0-0-0-0-0-0-0-0-|-0-0-0-0-0-0-0-0-|-0-0-0-0-0-0-0-0-|-0-0-0-0-0-0-0-0-|
G|-4-4-4-4-4-4-4-4-|-4-4-4-4-4-4-4-4-|-4-4-4-4-4-4-4-4-|-4-4-4-4-4-4-4-4-|
D|-4-4-4-4-4-4-4-4-|-4-4-4-4-4-4-4-4-|-2-2-2-2-2-2-2-2-|-2-2-2-2-2-2-2-2-|
A|-2-2-2-2-2-2-2-2-|-2-2-2-2-2-2-2-2-|-0-0-0-0-0-0-0-0-|-0-0-0-0-0-0-0-0-|
E|-----------------|-----------------|-----------------|-----------------|

Gtr 2
e|----------0-------|-------0---------|-------0--------|-------0---------|
B|-----------0------|---------0-------|---------0------|---------0-------|
G|-------4----------|-----4-----------|-----4----------|-----4-----------|
D|-----4------------|---4-------------|---2------------|---2-------------|
A|---2--------------|-2---------------|-0--------------|-0---------------|
E|------------------|-----------------|----------------|-----------------|

Gtr 4
e|-----------------|-----------------|-----------------|-----------------|
B|-----------------|-----------------|-----------------|-----------------|
G|-6---------------|-4---------------|-----------------|-----------------|
D|-x---------------|-x---------------|-7---------------|-(7)-------------|
A|-4---------------|-2---------------|-x---------------|-(x)-------------|
E|-----------------|-----------------|-5---------------|-(5)-------------|


*VERSE 1
Gtr 1 (Dave - Distortion)
e|-0-0-0-0-0-0-0-0-|-0-0-0-0-0-0-0-0-|-0-0-0-0-0-0-0-0-|-0-0-0-0-0-0-0-0-|   
B|-0-0-0-0-0-0-0-0-|-0-0-0-0-0-0-0-0-|-0-0-0-0-0-0-0-0-|-0-0-0-0-0-0-0-0-|   
G|-4-4-4-4-4-4-4-4-|-4-4-4-4-4-4-4-4-|-4-4-4-4-4-4-4-4-|-4-4-4-4-4-4-4-4-|
D|-2-2-2-2-2-2-2-2-|-2-2-2-2-2-2-2-2-|-2-2-2-2-2-2-2-2-|-2-2-2-2-2-2-2-2-|      
A|-4-4-4-4-4-4-4-4-|-4-4-4-4-4-4-4-4-|-0-0-0-0-0-0-0-0-|-0-0-0-0-0-0-0-0-|     
E|-----------------|-----------------|-----------------|-----------------| 

Gtr 2 (Chris Distortion)
e|-----------------|-----------------|-----------------|--------------------|
B|-----------------|-----------------|-----------------|--------------------|
G|-6-6-6-6-6-6-6-6-|-6-6-6-6-6-6-6-6-|-9-9-9-9-9-9-9-9-|-9-9-9-9-9-11-11-11-|
D|-x-x-x-x-x-x-x-x-|-x-x-x-x-x-x-x-x-|-x-x-x-x-x-x-x-x-|-x-x-x-x-x--x--x--x-|
A|-4-4-4-4-4-4-4-4-|-4-4-4-4-4-4-4-4-|-7-7-7-7-7-7-7-7-|-7-7-7-7-7--7--7--7-|
E|-----------------|-----------------|-----------------|--------------------|

Gtr 1
e|-0-0-0-0-0-0-0-0-|-0-0-0-0-0-0-0-0-|-0-0-0-0-0-0-0-0-|-0-0-0-0-0-0-0-0-|   
B|-0-0-0-0-0-0-0-0-|-0-0-0-0-0-0-0-0-|-0-0-0-0-0-0-0-0-|-0-0-0-0-0-0-0-0-|   
G|-4-4-4-4-4-4-4-4-|-4-4-4-4-4-4-4-4-|-4-4-4-4-4-4-4-4-|-4-4-4-4-4-4-4-4-|
D|-2-2-2-2-2-2-2-2-|-2-2-2-2-2-2-2-2-|-2-2-2-2-2-2-2-2-|-2-2-2-2-2-2-2-2-|      
A|-4-4-4-4-4-4-4-4-|-4-4-4-4-4-4-4-4-|-0-0-0-0-0-0-0-0-|-0-0-0-0-0-0-0-0-|     
E|-----------------|-----------------|-----------------|-----------------| 

Gtr 2
e|-----------------|-----------------|-----------------|--------------------|
B|-----------------|-----------------|-----------------|--------------------|
G|-6-6-6-6-6-6-6-6-|-6-6-6-6-6-6-6-6-|-9-9-9-9-9-9-9-9-|-9-9-9-9-9-11-11-11-|
D|-x-x-x-x-x-x-x-x-|-x-x-x-x-x-x-x-x-|-x-x-x-x-x-x-x-x-|-x-x-x-x-x--x--x--x-|
A|-4-4-4-4-4-4-4-4-|-4-4-4-4-4-4-4-4-|-7-7-7-7-7-7-7-7-|-7-7-7-7-7--7--7--7-|
E|-----------------|-----------------|-----------------|--------------------|


*PRE CHORUS:
Gtr 1
e|-0-0-0-0-0-0-0-0-|-0-0-0-0-0-0-0-0-|-0-0-0-0-0-0-0-0-|-0-0-0-0-0-0-0-0-|
B|-0-0-0-0-0-0-0-0-|-0-0-0-0-0-0-0-0-|-0-0-0-0-0-0-0-0-|-0-0-0-0-0-0-0-0-|
G|-4-4-4-4-4-4-4-4-|-4-4-4-4-4-4-4-4-|-4-4-4-4-4-4-4-4-|-4-4-4-4-4-4-4-4-|
D|-4-4-4-4-4-4-4-4-|-4-4-4-4-4-4-4-4-|-2-2-2-2-2-2-2-2-|-2-2-2-2-2-2-2-2-|
A|-2-2-2-2-2-2-2-2-|-2-2-2-2-2-2-2-2-|-0-0-0-0-0-0-0-0-|-0-0-0-0-0-0-0-0-|
E|-----------------|-----------------|-----------------|-----------------|

Gtr 2
e|-----------------|-----------------|-----------------|-----------------|
B|-----------------|-----------------|-----------------|-----------------|
G|-8------6/4------|-----------------|-9-9-9-9-9-9-9-9-|-4-4-4-4-4-4-4-4-|
D|-x------x--------|-----------------|-x-x-x-x-x-x-x-x-|-x-x-x-x-x-x-x-x-|
A|-6------4/2------|-----------------|-7-7-7-7-7-7-7-7-|-2-2-2-2-2-2-2-2-|
E|-----------------|-----------------|-----------------|-----------------|


*VERSE 1 (Continue)
Gtr 1
e|-0-0-0-0-0-0-0-0-|-0-0-0-0-0-0-0-0-|-0-0-0-0-0-0-0-0-|-0-0-0-0-0-0-0-0----|   
B|-0-0-0-0-0-0-0-0-|-0-0-0-0-0-0-0-0-|-0-0-0-0-0-0-0-0-|-0-0-0-0-0-0-0-0----|   
G|-4-4-4-4-4-4-4-4-|-4-4-4-4-4-4-4-4-|-4-4-4-4-4-4-4-4-|-4-4-4-4-4-4-4-4----|
D|-2-2-2-2-2-2-2-2-|-2-2-2-2-2-2-2-2-|-2-2-2-2-2-2-2-2-|-2-2-2-2-2-2-2-2----|      
A|-4-4-4-4-4-4-4-4-|-4-4-4-4-4-4-4-4-|-0-0-0-0-0-0-0-0-|-0-0-0-0-0-0-0-0----|     
E|-----------------|-----------------|-----------------|--------------------| 

Gtr 2
e|-----------------|-----------------|-----------------|--------------------|
B|-----------------|-----------------|-----------------|--------------------|
G|-6-6-6-6-6-6-6-6-|-6-6-6-6-6-6-6-6-|-9-9-9-9-9-9-9-9-|-9-9-9-9-9-11-11-11-|
D|-x-x-x-x-x-x-x-x-|-x-x-x-x-x-x-x-x-|-x-x-x-x-x-x-x-x-|-x-x-x-x-x--x--x--x-|
A|-4-4-4-4-4-4-4-4-|-4-4-4-4-4-4-4-4-|-7-7-7-7-7-7-7-7-|-7-7-7-7-7--7--7--7-|
E|-----------------|-----------------|-----------------|--------------------|

Gtr 1
e|-0-0-0-0-0-0-0-0-|-0-0-0-0-0-0-0-0-|-0-0-0-0-0-0-0-0-|-0-0-0-0-0-0-0-0----|   
B|-0-0-0-0-0-0-0-0-|-0-0-0-0-0-0-0-0-|-0-0-0-0-0-0-0-0-|-0-0-0-0-0-0-0-0----|   
G|-4-4-4-4-4-4-4-4-|-4-4-4-4-4-4-4-4-|-4-4-4-4-4-4-4-4-|-4-4-4-4-4-4-4-4----|
D|-2-2-2-2-2-2-2-2-|-2-2-2-2-2-2-2-2-|-2-2-2-2-2-2-2-2-|-2-2-2-2-2-2-2-2----|      
A|-4-4-4-4-4-4-4-4-|-4-4-4-4-4-4-4-4-|-0-0-0-0-0-0-0-0-|-0-0-0-0-0-0-0-0----|     
E|-----------------|-----------------|-----------------|--------------------| 

Gt2
e|-----------------|-----------------|-----------------|--------------------|
B|-----------------|-----------------|-----------------|--------------------|
G|-6-6-6-6-6-6-6-6-|-6-6-6-6-6-6-6-6-|-9-9-9-9-9-9-9-9-|-9-9-9-9-9-11-11-11-|
D|-x-x-x-x-x-x-x-x-|-x-x-x-x-x-x-x-x-|-x-x-x-x-x-x-x-x-|-x-x-x-x-x--x--x--x-|
A|-4-4-4-4-4-4-4-4-|-4-4-4-4-4-4-4-4-|-7-7-7-7-7-7-7-7-|-7-7-7-7-7--7--7--7-|
E|-----------------|-----------------|-----------------|--------------------|


*PRE CHORUS:
Gtr 1
e|-0-0-0-0-0-0-0-0-|-0-0-0-0-0-0-0-0-|-0-0-0-0-0-0-0-0-|-0-0-0-0-0-0-0-0-|
B|-0-0-0-0-0-0-0-0-|-0-0-0-0-0-0-0-0-|-0-0-0-0-0-0-0-0-|-0-0-0-0-0-0-0-0-|
G|-4-4-4-4-4-4-4-4-|-4-4-4-4-4-4-4-4-|-4-4-4-4-4-4-4-4-|-4-4-4-4-4-4-4-4-|
D|-4-4-4-4-4-4-4-4-|-4-4-4-4-4-4-4-4-|-2-2-2-2-2-2-2-2-|-2-2-2-2-2-2-2-2-|
A|-2-2-2-2-2-2-2-2-|-2-2-2-2-2-2-2-2-|-0-0-0-0-0-0-0-0-|-0-0-0-0-0-0-0-0-|
E|-----------------|-----------------|-----------------|-----------------|

Gtr 2
e|-----------------|-----------------|-----------------|-----------------|
B|-----------------|-----------------|-----------------|-----------------|
G|-8------6/4------|-----------------|-9-9-9-9-9-9-9-9-|-9-9-9-9-9-9-9-9-|
D|-x------x--------|-----------------|-x-x-x-x-x-x-x-x-|-x-x-x-x-x-x-x-x-|
A|-6------4/2------|-----------------|-7-7-7-7-7-7-7-7-|-7-7-7-7-7-7-7-7-|
E|-----------------|-----------------|-----------------|-----------------|


*CHORUS 2:
Gtr 1 (Distortion)
e|-0-0-0-0-0-0-0-0-|-0-0-0-0-0-0-0-0-|-0-0-0-0-0-0-0-0-|-0-0-0-0-0-0-0-0-|
B|-0-0-0-0-0-0-0-0-|-0-0-0-0-0-0-0-0-|-0-0-0-0-0-0-0-0-|-0-0-0-0-0-0-0-0-|
G|-4-4-4-4-4-4-4-4-|-4-4-4-4-4-4-4-4-|-4-4-4-4-4-4-4-4-|-3-3-3-3-3-3-3-3-|
D|-2-2-2-2-2-2-2-2-|-1-1-1-1-1-1-1-1-|-2-2-2-2-2-2-2-2-|-4-4-4-4-4-4-4-4-|
A|-4-4-4-4-4-4-4-4-|-2-2-2-2-2-2-2-2-|-0-0-0-0-0-0-0-0-|-4-4-4-4-4-4-4-4-|
E|-----------------|-----------------|-----------------|-2-2-2-2-2-2-2-2-|

Gtr 2
e|-----------------|-----------------|-----------------|--------------------------|
B|-----------------|-----------------|-----------------|--------------------------|
G|-6-6-6-6-6-6-6-6-|-8-8-8-8-8-8-8-8-|-9-9-9-9-9-9-9-9-|-11-11-11-11-11-11-11-11--|
D|-x-x-x-x-x-x-x-x-|-x-x-x-x-x-x-x-x-|-x-x-x-x-x-x-x-x-|--x--x--x--x--x--x--x--x--| 
A|-4-4-4-4-4-4-4-4-|-6-6-6-6-6-6-6-6-|-7-7-7-7-7-7-7-7-|--9--9--9--9--9--9--9--9--|
E|-----------------|-----------------|-----------------|--------------------------|

Gtr 1 (Distortion)
e|-0-0-0-0-0-0-0-0-|-0-0-0-0-0-0-0-0-|-0-0-0-0-0-0-0-0-|-0-0-0-0-0-0-0-0-|
B|-0-0-0-0-0-0-0-0-|-0-0-0-0-0-0-0-0-|-0-0-0-0-0-0-0-0-|-0-0-0-0-0-0-0-0-|
G|-4-4-4-4-4-4-4-4-|-4-4-4-4-4-4-4-4-|-4-4-4-4-4-4-4-4-|-3-3-3-3-3-3-3-3-|
D|-2-2-2-2-2-2-2-2-|-1-1-1-1-1-1-1-1-|-2-2-2-2-2-2-2-2-|-4-4-4-4-4-4-4-4-|
A|-4-4-4-4-4-4-4-4-|-2-2-2-2-2-2-2-2-|-0-0-0-0-0-0-0-0-|-4-4-4-4-4-4-4-4-|
E|-----------------|-----------------|-----------------|-2-2-2-2-2-2-2-2-|

Gtr 2 
e|-----------------|-----------------|-----------------|--------------------------|
B|-----------------|-----------------|-----------------|--------------------------|
G|-6-6-6-6-6-6-6-6-|-8-8-8-8-8-8-8-8-|-9-9-9-9-9-9-9-9-|-11-11-11-11-11-11-11-11--|
D|-x-x-x-x-x-x-x-x-|-x-x-x-x-x-x-x-x-|-x-x-x-x-x-x-x-x-|--x--x--x--x--x--x--x--x--| 
A|-4-4-4-4-4-4-4-4-|-6-6-6-6-6-6-6-6-|-7-7-7-7-7-7-7-7-|--9--9--9--9--9--9--9--9--|
E|-----------------|-----------------|-----------------|--------------------------|


Gtr 1 (Distortion)
e|-0-0-0-0-0-0-0-0-|-0-0-0-0-0-0-0-0-|-0-0-0-0-0-0-0-0-|-0-0-0-0-0-0-0-0-|
B|-0-0-0-0-0-0-0-0-|-0-0-0-0-0-0-0-0-|-0-0-0-0-0-0-0-0-|-0-0-0-0-0-0-0-0-|
G|-4-4-4-4-4-4-4-4-|-4-4-4-4-4-4-4-4-|-4-4-4-4-4-4-4-4-|-3-3-3-3-3-3-3-3-|
D|-2-2-2-2-2-2-2-2-|-1-1-1-1-1-1-1-1-|-2-2-2-2-2-2-2-2-|-4-4-4-4-4-4-4-4-|
A|-4-4-4-4-4-4-4-4-|-2-2-2-2-2-2-2-2-|-0-0-0-0-0-0-0-0-|-4-4-4-4-4-4-4-4-|
E|-----------------|-----------------|-----------------|-2-2-2-2-2-2-2-2-|

Gtr 2
e|-------------------------|-------------------------|-------------------------|-------------------------|
B|-------------------------|-------------------------|-------------------------|-------------------------|
G|-13-13-13-13-13-13-13-13-|-16-16-16-16-16-16-16-16-|-18-18-18-18-18-18-18-18-|-15-15-15-15-15-15-15-15-|
D|--x--x--x--x--x--x--x--x-|--x--x--x--x--x--x--x--x-|-x--x--x--x--x---x--x--x-|--x--x--x--x--x--x--x--x-| 
A|-11-11-11-11-11-11-11-11-|-14-14-14-14-14-14-14-14-|-16-16-16-16-16-16-16-16-|-13-13-13-13-13-13-13-13-|
E|-------------------------|-------------------------|-------------------------|-------------------------|

Gtr 1 (Distortion)
e|-0-0-0-0-0-0-0-0-|-0-0-0-0-0-0-0-0-|-0-0-0-0-0-0-0-0-|-0-0-0-0-0-0-0-0-|
B|-0-0-0-0-0-0-0-0-|-0-0-0-0-0-0-0-0-|-0-0-0-0-0-0-0-0-|-0-0-0-0-0-0-0-0-|
G|-4-4-4-4-4-4-4-4-|-4-4-4-4-4-4-4-4-|-4-4-4-4-4-4-4-4-|-3-3-3-3-3-3-3-3-|
D|-2-2-2-2-2-2-2-2-|-1-1-1-1-1-1-1-1-|-2-2-2-2-2-2-2-2-|-4-4-4-4-4-4-4-4-|
A|-4-4-4-4-4-4-4-4-|-2-2-2-2-2-2-2-2-|-0-0-0-0-0-0-0-0-|-4-4-4-4-4-4-4-4-|
E|-----------------|-----------------|-----------------|-2-2-2-2-2-2-2-2-|

Gtr 2
e|-------------------------|-------------------------|-------------------------|-------------------------|
B|-------------------------|-------------------------|-------------------------|-------------------------|
G|-13-13-13-13-13-13-13-13-|-16-16-16-16-16-16-16-16-|-18-18-18-18-18-18-18-18-|-18-18-18-18-18-18-18-18-|
D|--x--x--x--x--x--x--x--x-|--x--x--x--x--x--x--x--x-|-x--x--x--x--x---x--x--x-|--x--x--x--x--x--x--x--x-| 
A|-11-11-11-11-11-11-11-11-|-14-14-14-14-14-14-14-14-|-16-16-16-16-16-16-16-16-|-16-16-16-16-16-16-16-16-|
E|-------------------------|-------------------------|-------------------------|-------------------------|


*SOLO:
Gtr 1
e|-0-0-0-0-0-0-0-0-0-0-0-0-0-|-0-0-0-0-0-0-0-0-0-0-0-0-|   
B|-0-0-0-0-0-0-0-0-0-0-0-0-0-|-0-0-0-0-0-0-0-0-0-0-0-0-|   
G|-4-4-4-4-4-4-4-4-4-4-4-4-4-|-4-4-4-4-4-4-4-4-4-4-4-4-|
D|-2-2-2-2-2-2-2-2-2-2-2-2-2-|-2-2-2-2-2-2-2-2-2-2-2-2-|     
A|-4-4-4-4-4-4-4-4-4-4-4-4-4-|-4-4-4-4-4-4-4-4-4-4-4-4-|     
E|---------------------------|-------------------------| 

Gtr 2 (Chris)
e|-------------------------------------------------|-------------------------------------------------|
B|-------------------------------------------------|-------------------------------------------------|
G|-13-13-13-13-13-13-13-13-13-13-13-13-13-13-13-13-|-13-13-13-13-13-13-16-16-16-13-13-13-13-13-16-16-|
D|--x--x--x--x--x--x--x--x--x--x--x--x--x--x--x--x-|--x--x--x--x--x--x--x--x--x--x--x--x--x--x--x--x-|
A|-11-11-11-11-11-11-11-11-11-11-11-11-11-11-11-11-|-11-11-11-11-11-11-14-14-14-11-11-11-11-11-14-14-|
E|-------------------------------------------------|-------------------------------------------------|

Gtr 1
e|-0-0-0-0-0-0-0-0-0-0-0-0-0-|-0-0-0-0-0-0-0-0-0-0-0-0-0-|
B|-0-0-0-0-0-0-0-0-0-0-0-0-0-|-0-0-0-0-0-0-0-0-0-0-0-0-0-|
G|-4-4-4-4-4-4-4-4-4-4-4-4-4-|-4-4-4-4-4-4-4-4-4-4-4-4-4-|
D|-2-2-2-2-2-2-2-2-2-2-2-2-2-|-2-2-2-2-2-2-2-2-2-2-2-2-2-| 
A|-0-0-0-0-0-0-0-0-0-0-0-0-0-|-0-0-0-0-0-0-0-0-0-0-0-0-0-|
E|---------------------------|---------------------------|

Gtr 2
e|-------------------------------------------------|-------------------------------------------------|
B|-------------------------------------------------|-------------------------------------------------|
G|-18-18-18-18-18-18-16-16-16-16-16-16-16-16-16-16-|-16-16-16-16-16-16-16-16-16-16-16-16-16-16-16-16-|
D|-x--x--x--x--x--x--x--x--x--x--x--x--x--x--x--x--|-x--x--x--x--x--x--x--x--x--x--x--x--x--x--x--x--|
A|-16-16-16-16-16-16-14-14-14-14-14-14-14-14-14-14-|-14-14-14-14-14-14-14-14-14-14-14-14-14-14-14-14-|
E|-------------------------------------------------|-------------------------------------------------|

Gtr 1
e|-0-0-0-0-0-0-0-0-0-0-0-0-0-|-0-0-0-0-0-0-0-0-0-0-0-0-|   
B|-0-0-0-0-0-0-0-0-0-0-0-0-0-|-0-0-0-0-0-0-0-0-0-0-0-0-|   
G|-4-4-4-4-4-4-4-4-4-4-4-4-4-|-4-4-4-4-4-4-4-4-4-4-4-4-|
D|-2-2-2-2-2-2-2-2-2-2-2-2-2-|-2-2-2-2-2-2-2-2-2-2-2-2-|     
A|-4-4-4-4-4-4-4-4-4-4-4-4-4-|-4-4-4-4-4-4-4-4-4-4-4-4-|     
E|---------------------------|-------------------------| 
[ Tab from: http://www.guitartabs.cc/tabs/f/foo_fighters/best_of_you_tab_ver_6.html ]
Gtr 2
e|-------------------------------------------------|-------------------------------------------------|
B|-------------------------------------------------|-------------------------------------------------|
G|-13-13-13-13-13-13-13-13-13-13-13-13-13-13-13-13-|-13-13-13-13-13-13-16-16-16-13-13-13-13-13-16-16-|
D|--x--x--x--x--x--x--x--x--x--x--x--x--x--x--x--x-|--x--x--x--x--x--x--x--x--x--x--x--x--x--x--x--x-|
A|-11-11-11-11-11-11-11-11-11-11-11-11-11-11-11-11-|-11-11-11-11-11-11-14-14-14-11-11-11-11-11-14-14-|
E|-------------------------------------------------|-------------------------------------------------|

Gtr 1                        
e|-0-0-0-0-0-0-0-0-0-0-0-0-0-|-0-0-0-0-0-0-0-0-0-0-0-0-0-|
B|-0-0-0-0-0-0-0-0-0-0-0-0-0-|-0-0-0-0-0-0-0-0-0-0-0-0-0-|  
G|-4-4-4-4-4-4-4-4-4-4-4-4-4-|-3-3-3-3-3-3-3-3-3-3-3-3-3-|                   
D|-2-2-2-2-2-2-2-2-2-2-2-2-2-|-4-4-4-4-4-4-4-4-4-4-4-4-4-|
A|-0-0-0-0-0-0-0-0-0-0-0-0-0-|-4-4-4-4-4-4-4-4-4-4-4-4-4-|
E|---------------------------|-2-2-2-2-2-2-2-2-2-2-2-2-2-|

Gtr 2    
e|-------------------------------------------------|-------------------------------------------------|
B|-------------------------------------------------|-------------------------------------------------|
G|-18-18-18-18-18-18-18-18-18-18-18-18-18-18-18-18-|-18-18-18-18-18-18-18-18-18-18-18-18-18-18-18-18-|
D|-x--x--x--x--x--x--x--x--x--x--x--x--x--x--x--x--|-x--x--x--x--x--x--x--x--x--x--x--x--x--x--x--x--|
A|-16-16-16-16-16-16-16-16-16-16-16-16-16-16-16-16-|-16-16-16-16-16-16-16-16-16-16-16-16-16-16-16-16-|
E|-------------------------------------------------|-------------------------------------------------|


*INTERLUDE:
Gtr 1 
e|---------------------|---------------------|---------------------|---------------------|
B|-0-0-0-0-0-0-0-0-0-0-|-0-0-0-0-0-0-0-0-0-0-|---------------------|---------------------|
G|-4-4-4-4-4-4-4-4-4-4-|-4-4-4-4-4-4-4-4-4-4-|-4-4-4-4-4-4-4-4-4-4-|-4-4-4-4-4-----4-4-4-|
D|-4-4-4-4-4-4-4-4-4-4-|-4-4-4-4-4-4-4-4-4-4-|-2-2-2-2-2-2-2-2-2-2-|-2-2-2-2-2-2-2-2-2-2-|
A|-2-2-2-2-2-2-2-2-2-2-|-2-2-2-2-2-2-2-2-2-2-|-0-0-0-0-0-0-0-0-0-0-|-0-0-0-0-0-0-0-0-0-0-|
E|---------------------|---------------------|---------------------|---------------------|
                                                                              |--|
Gtr 2                                                                           PM
e|---------------------|---------------------|---------------------|---------------------|
B|---------------------|---------------------|---------------------|---------------------|
G|-11-----9/8----------|---------------------|--9------------------|---------------------|
D|--x-----x------------|---------------------|--x------------------|---------------------|
A|--9-----7/6----------|---------------------|--7------------------|---------------------|
E|---------------------|---------------------|---------------------|---------------------|

Gtr 1 
e|-----------------|---------x-x-x-x-x---|---------------------|-------------------|
B|-0-0-0-0-0-0-0-0-|-0-0-0-0-x-x-x-x-x-0-|---------------------|-------------------|
G|-4-4-4-4-4-4-4-4-|-4-4-4-4-x-x-x-x-x-4/|-4-4-4-4-4-4-4-4-4-4-|-4-4-4-4-4-4-4-4-4-|
D|-4-4-4-4-4-4-4-4-|-4-4-4-4-x-x-x-x-x-4/|-2-2-2-2-2-2-2-2-2-2-|-2-2-2-2-2-2-2-2-2-|
A|-2-2-2-2-2-2-2-2-|-2-2-2-2-x-x-x-x-x-2/|-0-0-0-0-0-0-0-0-0-0-|-0-0-0-0-0-0-0-0-0-|
E|-----------------|---------x-x-x-x-x---|---------------------|-------------------|

Gtr 2                                                                          
e|-----------------|---------------------|---------------------|-------------------|
B|-----------------|---------------------|---------------------|-------------------|
G|-11-----9/8------|---------------------|-11------------------|-9-----------------|
D|--x-----x--------|---------------------|--x------------------|-x-----------------|
A|--9-----7/6------|---------------------|--9------------------|-7-----------------|
E|-----------------|---------------------|---------------------|--------------23/0-|


*CHORUS 3:
Gtr 1 (Distortion)
e|-0-0-0-0-0-0-0-0-|-0-0-0-0-0-0-0-0-|-0-0-0-0-0-0-0-0-|-0-0-0-0-0-0-0-0-|
B|-0-0-0-0-0-0-0-0-|-0-0-0-0-0-0-0-0-|-0-0-0-0-0-0-0-0-|-0-0-0-0-0-0-0-0-|
G|-4-4-4-4-4-4-4-4-|-4-4-4-4-4-4-4-4-|-4-4-4-4-4-4-4-4-|-3-3-3-3-3-3-3-3-|
D|-2-2-2-2-2-2-2-2-|-1-1-1-1-1-1-1-1-|-2-2-2-2-2-2-2-2-|-4-4-4-4-4-4-4-4-|
A|-4-4-4-4-4-4-4-4-|-2-2-2-2-2-2-2-2-|-0-0-0-0-0-0-0-0-|-4-4-4-4-4-4-4-4-|
E|-----------------|-----------------|-----------------|-2-2-2-2-2-2-2-2-|

Gtr 2
e|-----------------|-----------------|-----------------|--------------------------|
B|-----------------|-----------------|-----------------|--------------------------|
G|-6-6-6-6-6-6-6-6-|-8-8-8-8-8-8-8-8-|-9-9-9-9-9-9-9-9-|-11-11-11-11-11-11-11-11--|
D|-x-x-x-x-x-x-x-x-|-x-x-x-x-x-x-x-x-|-x-x-x-x-x-x-x-x-|--x--x--x--x--x--x--x--x--| 
A|-4-4-4-4-4-4-4-4-|-6-6-6-6-6-6-6-6-|-7-7-7-7-7-7-7-7-|--9--9--9--9--9--9--9--9--|
E|-----------------|-----------------|-----------------|--------------------------|

Gtr 1 (Distortion)
e|-0-0-0-0-0-0-0-0-|-0-0-0-0-0-0-0-0-|-0-0-0-0-0-0-0-0-|-0-0-0-0-0-0-0-0-|
B|-0-0-0-0-0-0-0-0-|-0-0-0-0-0-0-0-0-|-0-0-0-0-0-0-0-0-|-0-0-0-0-0-0-0-0-|
G|-4-4-4-4-4-4-4-4-|-4-4-4-4-4-4-4-4-|-4-4-4-4-4-4-4-4-|-3-3-3-3-3-3-3-3-|
D|-2-2-2-2-2-2-2-2-|-1-1-1-1-1-1-1-1-|-2-2-2-2-2-2-2-2-|-4-4-4-4-4-4-4-4-|
A|-4-4-4-4-4-4-4-4-|-2-2-2-2-2-2-2-2-|-0-0-0-0-0-0-0-0-|-4-4-4-4-4-4-4-4-|
E|-----------------|-----------------|-----------------|-2-2-2-2-2-2-2-2-|

Gtr 2
e|-----------------|-----------------|-----------------|--------------------------|
B|-----------------|-----------------|-----------------|--------------------------|
G|-6-6-6-6-6-6-6-6-|-8-8-8-8-8-8-8-8-|-9-9-9-9-9-9-9-9-|-11-11-11-11-11-11-11-11--|
D|-x-x-x-x-x-x-x-x-|-x-x-x-x-x-x-x-x-|-x-x-x-x-x-x-x-x-|--x--x--x--x--x--x--x--x--| 
A|-4-4-4-4-4-4-4-4-|-6-6-6-6-6-6-6-6-|-7-7-7-7-7-7-7-7-|--9--9--9--9--9--9--9--9--|
E|-----------------|-----------------|-----------------|--------------------------|

Gtr 1 
e|-0-0-0-0-0-0-0-0-|-0-0-0-0-0-0-0-0-|-0-0-0-0-0-0-0-0-|-0-0-0-0-0-0-0-0-|
B|-0-0-0-0-0-0-0-0-|-0-0-0-0-0-0-0-0-|-0-0-0-0-0-0-0-0-|-0-0-0-0-0-0-0-0-|
G|-4-4-4-4-4-4-4-4-|-4-4-4-4-4-4-4-4-|-4-4-4-4-4-4-4-4-|-3-3-3-3-3-3-3-3-|
D|-2-2-2-2-2-2-2-2-|-1-1-1-1-1-1-1-1-|-2-2-2-2-2-2-2-2-|-4-4-4-4-4-4-4-4-|
A|-4-4-4-4-4-4-4-4-|-2-2-2-2-2-2-2-2-|-0-0-0-0-0-0-0-0-|-4-4-4-4-4-4-4-4-|
E|-----------------|-----------------|-----------------|-2-2-2-2-2-2-2-2-|

Gtr 2
e|-------------------------|-------------------------|-------------------------|-------------------------|
B|-------------------------|-------------------------|-------------------------|-------------------------|
G|-13-13-13-13-13-13-13-13-|-16-16-16-16-16-16-16-16-|-18-18-18-18-18-18-18-18-|-15-15-15-15-15-15-15-15-|
D|--x--x--x--x--x--x--x--x-|--x--x--x--x--x--x--x--x-|-x--x--x--x--x---x--x--x-|--x--x--x--x--x--x--x--x-| 
A|-11-11-11-11-11-11-11-11-|-14-14-14-14-14-14-14-14-|-16-16-16-16-16-16-16-16-|-13-13-13-13-13-13-13-13-|
E|-------------------------|-------------------------|-------------------------|-------------------------|

Gtr 1 
e|-0-0-0-0-0-0-0-0-|-0-0-0-0-0-0-0-0-|-0-0-0-0-0-0-0-0-|-0-0-0-0-0-0-0-0-|-0--|
B|-0-0-0-0-0-0-0-0-|-0-0-0-0-0-0-0-0-|-0-0-0-0-0-0-0-0-|-0-0-0-0-0-0-0-0-|-0--|
G|-4-4-4-4-4-4-4-4-|-4-4-4-4-4-4-4-4-|-4-4-4-4-4-4-4-4-|-3-3-3-3-3-3-3-3-|-4--|
D|-2-2-2-2-2-2-2-2-|-1-1-1-1-1-1-1-1-|-2-2-2-2-2-2-2-2-|-4-4-4-4-4-4-4-4-|-2--|
A|-4-4-4-4-4-4-4-4-|-2-2-2-2-2-2-2-2-|-0-0-0-0-0-0-0-0-|-4-4-4-4-4-4-4-4-|-4--|
E|-----------------|-----------------|-----------------|-2-2-2-2-2-2-2-2-|----|

Gtr 2
e|-------------------------|-------------------------|-------------------------|-------------------------|----|
B|-------------------------|-------------------------|-------------------------|-------------------------|----|
G|-13-13-13-13-13-13-13-13-|-16-16-16-16-16-16-16-16-|-18-18-18-18-18-18-18-18-|-15-15-15-15-15-15-15-15-|-9--|
D|--x--x--x--x--x--x--x--x-|--x--x--x--x--x--x--x--x-|-x--x--x--x--x---x--x--x-|--x--x--x--x--x--x--x--x-|-x -|
A|-11-11-11-11-11-11-11-11-|-14-14-14-14-14-14-14-14-|-16-16-16-16-16-16-16-16-|-13-13-13-13-13-13-13-13-|-7--|
E|-------------------------|-------------------------|-------------------------|-------------------------|----|


*LAST VERSE
Gtr 1 (Clean)
e|-----0-------|-----0-------|-----0-------|-----0-------|
B|-----0-----0-|-----0-----0-|-----0-----0-|-----0-----0-|
G|---4-4-4---4-|---4-4-4---4-|---4-4-4---4-|---4-4-4---4-| X2
D|-2-2-2-2-2-2-|-2-2-2-2-2-2-|-2-2-2-2-2-2-|-2-2-2-2-2-2-|
A|-4-4---4-4-4-|-4-4---4-4-4-|-0-0---0-0-0-|-0-0---0-0-0-|
E|-------------|-------------|-------------|-------------|

*PRE CHORUS (Different - Distortion)
Gtr 1
e|---------------------|---------------------|---------------------|---------------------|
B|---------------------|---------------------|---------------------|---------------------|
G|---------------------|---------------------|---------------------|---------------------|
D|-4-4-4-4-4-4-4-4-4-4-|-4-4-4-4-4-4-4-4-4-4-|-2-2-2-2-2-2-2-2-2-2-|-2-2-2-2-2-2-2-2-2-2-|
A|-2-2-2-2-2-2-2-2-2-2-|-2-2-2-2-2-2-2-2-2-2-|-0-0-0-0-0-0-0-0-0-0-|-0-0-0-0-0-0-0-0-0-0-|
E|---------------------|---------------------|---------------------|---------------------|
 |---------------------------------------PALM MUTE---------------------------------------| 

Gtr 2
e|---------------------|---------------------|---------------------|---------------------|
B|-O-------------------|---------------------|--0------------------|---------------------|
G|---------------------|---------------------|---------------------|---------------------|
D|-4-------------------|---------------------|--2------------------|---------------------|
A|-2-------------------|---------------------|--0------------------|---------------------|
E|---------------------|---------------------|---------------------|---------------------|

Gtr 1
e|---------------------|---------------------|---------------------|---------------------|
B|---------------------|---------------------|---------------------|---------------------|
G|---------------------|---------------------|---------------------|---------------------|
D|-4-4-4-4-4-4-4-4-4-4-|-4-4-4-4-4-4-4-4-4-4-|-2-2-2-2-2-2-2-2-2-2-|-2-2-2-2-2-2-2-2-2-2-|
A|-2-2-2-2-2-2-2-2-2-2-|-2-2-2-2-2-2-2-2-2-2-|-0-0-0-0-0-0-0-0-0-0-|-0-0-0-0-0-0-0-0-0-0-|
E|---------------------|---------------------|---------------------|---------------------|
 |---------------------------------------PALM MUTE---------------------------------------| 

Gtr 2
e|---------------------|---------------------|---------------------|---------------------|
B|-O-------------------|---------------------|--0------------------|---------------------|
G|---------------------|---------------------|---------------------|---------------------|
D|-4-------------------|---------------------|--2------------------|---------------------|
A|-2-------------------|---------------------|--0------------------|---------------------|
E|---------------------|---------------------|---------------------|---------------------|


*CHORUS 4

Gtr 1 (Distortion)
e|-0-0-0-0-0-0-0-0-|-0-0-0-0-0-0-0-0-|-0-0-0-0-0-0-0-0-|-0-0-0-0-0-0-0-0-|
B|-0-0-0-0-0-0-0-0-|-0-0-0-0-0-0-0-0-|-0-0-0-0-0-0-0-0-|-0-0-0-0-0-0-0-0-|
G|-4-4-4-4-4-4-4-4-|-4-4-4-4-4-4-4-4-|-4-4-4-4-4-4-4-4-|-3-3-3-3-3-3-3-3-|
D|-2-2-2-2-2-2-2-2-|-1-1-1-1-1-1-1-1-|-2-2-2-2-2-2-2-2-|-4-4-4-4-4-4-4-4-|
A|-4-4-4-4-4-4-4-4-|-2-2-2-2-2-2-2-2-|-0-0-0-0-0-0-0-0-|-4-4-4-4-4-4-4-4-|
E|-----------------|-----------------|-----------------|-2-2-2-2-2-2-2-2-|

Gtr 2
e|-----------------|-----------------|-----------------|--------------------------|
B|-----------------|-----------------|-----------------|--------------------------|
G|-6-6-6-6-6-6-6-6-|-8-8-8-8-8-8-8-8-|-9-9-9-9-9-9-9-9-|-11-11-11-11-11-11-11-11--|
D|-x-x-x-x-x-x-x-x-|-x-x-x-x-x-x-x-x-|-x-x-x-x-x-x-x-x-|--x--x--x--x--x--x--x--x--| 
A|-4-4-4-4-4-4-4-4-|-6-6-6-6-6-6-6-6-|-7-7-7-7-7-7-7-7-|--9--9--9--9--9--9--9--9--|
E|-----------------|-----------------|-----------------|--------------------------|

Gtr 1 (Distortion)
e|-0-0-0-0-0-0-0-0-|-0-0-0-0-0-0-0-0-|-0-0-0-0-0-0-0-0-|-0-0-0-0-0-0-0-0-|
B|-0-0-0-0-0-0-0-0-|-0-0-0-0-0-0-0-0-|-0-0-0-0-0-0-0-0-|-0-0-0-0-0-0-0-0-|
G|-4-4-4-4-4-4-4-4-|-4-4-4-4-4-4-4-4-|-4-4-4-4-4-4-4-4-|-3-3-3-3-3-3-3-3-|
D|-2-2-2-2-2-2-2-2-|-1-1-1-1-1-1-1-1-|-2-2-2-2-2-2-2-2-|-4-4-4-4-4-4-4-4-|
A|-4-4-4-4-4-4-4-4-|-2-2-2-2-2-2-2-2-|-0-0-0-0-0-0-0-0-|-4-4-4-4-4-4-4-4-|
E|-----------------|-----------------|-----------------|-2-2-2-2-2-2-2-2-|

Gtr 2
e|-----------------|-----------------|-----------------|--------------------------|
B|-----------------|-----------------|-----------------|--------------------------|
G|-6-6-6-6-6-6-6-6-|-8-8-8-8-8-8-8-8-|-9-9-9-9-9-9-9-9-|-11-11-11-11-11-11-11-11--|
D|-x-x-x-x-x-x-x-x-|-x-x-x-x-x-x-x-x-|-x-x-x-x-x-x-x-x-|--x--x--x--x--x--x--x--x--| 
A|-4-4-4-4-4-4-4-4-|-6-6-6-6-6-6-6-6-|-7-7-7-7-7-7-7-7-|--9--9--9--9--9--9--9--9--|
E|-----------------|-----------------|-----------------|--------------------------|

Gtr 1 
e|-0-0-0-0-0-0-0-0-|-0-0-0-0-0-0-0-0-|-0-0-0-0-0-0-0-0-|-0-0-0-0-0-0-0-0-|
B|-0-0-0-0-0-0-0-0-|-0-0-0-0-0-0-0-0-|-0-0-0-0-0-0-0-0-|-0-0-0-0-0-0-0-0-|
G|-4-4-4-4-4-4-4-4-|-4-4-4-4-4-4-4-4-|-4-4-4-4-4-4-4-4-|-3-3-3-3-3-3-3-3-|
D|-2-2-2-2-2-2-2-2-|-1-1-1-1-1-1-1-1-|-2-2-2-2-2-2-2-2-|-4-4-4-4-4-4-4-4-|
A|-4-4-4-4-4-4-4-4-|-2-2-2-2-2-2-2-2-|-0-0-0-0-0-0-0-0-|-4-4-4-4-4-4-4-4-|
E|-----------------|-----------------|-----------------|-2-2-2-2-2-2-2-2-|

Gtr 2
e|-------------------------|-------------------------|-------------------------|-------------------------|
B|-------------------------|-------------------------|-------------------------|-------------------------|
G|-13-13-13-13-13-13-13-13-|-16-16-16-16-16-16-16-16-|-18-18-18-18-18-18-18-18-|-15-15-15-15-15-15-15-15-|
D|--x--x--x--x--x--x--x--x-|--x--x--x--x--x--x--x--x-|-x--x--x--x--x---x--x--x-|--x--x--x--x--x--x--x--x-| 
A|-11-11-11-11-11-11-11-11-|-14-14-14-14-14-14-14-14-|-16-16-16-16-16-16-16-16-|-13-13-13-13-13-13-13-13-|
E|-------------------------|-------------------------|-------------------------|-------------------------|

Gtr 1 
e|-0-0-0-0-0-0-0-0-|-0-0-0-0-0-0-0-0-|-0-0-0-0-0-0-0-0-|-0-0-0-0-0-0-0-0-|
B|-0-0-0-0-0-0-0-0-|-0-0-0-0-0-0-0-0-|-0-0-0-0-0-0-0-0-|-0-0-0-0-0-0-0-0-|
G|-4-4-4-4-4-4-4-4-|-4-4-4-4-4-4-4-4-|-4-4-4-4-4-4-4-4-|-3-3-3-3-3-3-3-3-|
D|-2-2-2-2-2-2-2-2-|-1-1-1-1-1-1-1-1-|-2-2-2-2-2-2-2-2-|-4-4-4-4-4-4-4-4-|
A|-4-4-4-4-4-4-4-4-|-2-2-2-2-2-2-2-2-|-0-0-0-0-0-0-0-0-|-4-4-4-4-4-4-4-4-|
E|-----------------|-----------------|-----------------|-2-2-2-2-2-2-2-2-|

Gtr 2
e|-------------------------|-------------------------|-------------------------|-------------------------|
B|-------------------------|-------------------------|-------------------------|-------------------------|
G|-13-13-13-13-13-13-13-13-|-16-16-16-16-16-16-16-16-|-18-18-18-18-18-18-18-18-|-18-18-18-18-18-18-18-18-|
D|--x--x--x--x--x--x--x--x-|--x--x--x--x--x--x--x--x-|-x--x--x--x--x---x--x--x-|--x--x--x--x--x--x--x--x-| 
A|-11-11-11-11-11-11-11-11-|-14-14-14-14-14-14-14-14-|-16-16-16-16-16-16-16-16-|-16-16-16-16-16-16-16-16-|
E|-------------------------|-------------------------|-------------------------|-------------------------|


*OUTRO
Gtr 1
e|-------------------|-------------------|-------------------|-------------------|
B|-------------------|-------------------|-------------------|-------------------|
G|--9/-x-x--9/-x-x-x-|--9/-x-x--9/-x-x-x-|--9/-x-x--9/-x-x-x-|--9/-x-x--9/-x-x-x-|
D|--x--x-x--x--x-x-x-|--x--x-x--x--x-x-x-|--x--x-x--x--x-x-x-|--x--x-x--x--x-x-x-|
A|--7/-x-x--7/-x-x-x-|--7/-x-x--7/-x-x-x-|--7/-x-x--7/-x-x-x-|--7/-x-x--7/-x-x-x-|
E|-------------------|-------------------|-------------------|-------------------|

Gtr 2
e|-------------------|-------------------|-------------------|-------------------|
B|-------------------|-------------------|-------------------|-------------------|
G|-------------------|-------------------|-------------------|-------------------|
D|-11/-x-x-11/-x-x-x-|-11/-x-x-11/-x-x-x-|-11/-x-x-11/-x-x-x-|-11/-x-x-11/-x-x-x-|
A|--x--x-x--x--x-x-x-|--x--x-x--x--x-x-x-|--x--x-x--x--x-x-x-|--x--x-x--x--x-x-x-|
E|--9/-x-x--9/-x-x-x-|--9/-x-x--9/-x-x-x-|--9/-x-x--9/-x-x-x-|--9/-x-x--9/-x-x-x-|

Gtr 3 (Full bends)
e|-------------------|-------------------|-------------------|-------------------|
B|------7b--7b-------|-------7b--7b------|------7b--7b-------|-------7b--7b------|
G|-------------------|-------------------|-------------------|-------------------|
D|-------------------|-------------------|-------------------|-------------------|
A|-------------------|-------------------|-------------------|-------------------|
E|-------------------|-------------------|-------------------|-------------------|


Gtr 1
e|-------------------|-------------------|-------------------|-------------------|
B|-------------------|-------------------|-------------------|-------------------|
G|--9/-x-x--9/-x-x-x-|--9/-x-x--9/-x-x-x-|--9/-x-x--9/-x-x-x-|--9/-x-x--9/-------|
D|--x--x-x--x--x-x-x-|--x--x-x--x--x-x-x-|--x--x-x--x--x-x-x-|--x--x-x--x--------|
A|--7/-x-x--7/-x-x-x-|--7/-x-x--7/-x-x-x-|--7/-x-x--7/-x-x-x-|--7/-x-x--7/-------|
E|-------------------|-------------------|-------------------|-------------------|

Gtr 2
e|-------------------|-------------------|-------------------|-------------------|
B|-------------------|-------------------|-------------------|-------------------|
G|-------------------|-------------------|-------------------|-------------------|
D|-11/-x-x-11/-x-x-x-|-11/-x-x-11/-x-x-x-|-11/-x-x-11/-x-x-x-|-11/-x-x-11/-------|
A|--x--x-x--x--x-x-x-|--x--x-x--x--x-x-x-|--x--x-x--x--x-x-x-|--x--x-x--x--------|
E|--9/-x-x--9/-x-x-x-|--9/-x-x--9/-x-x-x-|--9/-x-x--9/-x-x-x-|--9/-x-x--9/-------|

Gtr 3 (Full bends)
e|-------------------|-------------------|-------------------|-------------------|
B|-----12b--12b------|-----12b--12b------|------15b--15b-----|-----15b--15b------|
G|-------------------|-------------------|-------------------|-------------------|
D|-------------------|-------------------|-------------------|-------------------|
A|-------------------|-------------------|-------------------|-------------------|
E|-------------------|-------------------|-------------------|-------------------|


*THE END*