Foo Fighters - Best Of You Chords & Tabs

 

Best Of You Chords & Tabs

Foo Fighters Chords & Tabs

Version: 5 Type: Tab 0 ratings
1 star 2 stars 3 stars 4 stars 5 stars
comments

Best Of You Tab

   
Song: Best Of You
Artist: Foo Fighters
Album: In Your Honor
Genre: Rock

Intro/Verse
Guitar 1
e|---------------------------------|-0-0-0-0-0-0-0-0-0-0-0-0-0-0-0-0-|   
B|-0-0-0-0-0-0-0-0-0-0-0-0-0-0-0-0-|-0-0-0-0-0-0-0-0-0-0-0-0-0-0-0-0-|   
G|-4-4-4-4-4-4-4-4-4-4-4-4-4-4-4-4-|-4-4-4-4-4-4-4-4-4-4-4-4-4-4-4-4-| x2
D|-2-2-2-2-2-2-2-2-2-2-2-2-2-2-2-2-|-2-2-2-2-2-2-2-2-2-2-2-2-2-2-2-2-|      
A|-4-4-4-4-4-4-4-4-4-4-4-4-4-4-4-4-|-0-0-0-0-0-0-0-0-0-0-0-0-0-0-0-0-|     
E|---------------------------------|---------------------------------| 

e|---------------------------------|-0-0-0-0-0-0-0-0-0-0-0-0-0-0-0-0-|
B|-0-0-0-0-0-0-0-0-0-0-0-0-0-0-0-0-|-0-0-0-0-0-0-0-0-0-0-0-0-0-0-0-0-|
G|-4-4-4-4-4-4-4-4-4-4-4-4-4-4-4-4-|-4-4-4-4-4-4-4-4-4-4-4-4-4-4-4-4-|
D|-4-4-4-4-4-4-4-4-4-4-4-4-4-4-4-4-|-2-2-2-2-2-2-2-2-2-2-2-2-2-2-2-2-|
A|-2-2-2-2-2-2-2-2-2-2-2-2-2-2-2-2-|-0-0-0-0-0-0-0-0-0-0-0-0-0-0-0-0-|
E|---------------------------------|---------------------------------|

Guitar 2
e|-0-0-0-0-0-0-0-0-0-0-0-0-0-0-0-0-|-0-0-0-0-0-0-0-0-0-0-0/0--0--0---|
B|-0-0-0-0-0-0-0-0-0-0-0-0-0-0-0-0-|-0-0-0-0-0-0-0-0-0-0-0/0--0--0---|
G|-6-6-6-6-6-6-6-6-6-6-6-6-6-6-6-6-|-9-9-9-9-9-9-9-9-9-9-9/11-11-11--| x2
D|-6-6-6-6-6-6-6-6-6-6-6-6-6-6-6-6-|-9-9-9-9-9-9-9-9-9-9-9/11-11-11--|
A|---------------------------------|---------------------------------|
E|---------------------------------|---------------------------------|

e|--0-0-0-0-0-0-0-0-0-0-0-0-0-0-0-0-0-0-0-0-0-0-0-0-0-0-0-0-0-0-0-0--|
B|--0-0-0-0-0-0-0-0-0-0-0-0-0-0-0-0-0-0-0-0-0-0-0-0-0-0-0-0-0-0-0-0--|
G|--8-8-8-8-8-8-8-8-8-8/6/4-4-4-4-4-4-4-4-4-4/6/9-9-9-9-9-9-9-9-9-9--|
D|--9-9-9-9-9-9-9-9-9-9/6/4-4-4-4-4-4-4-4-4-4/6/9-9-9-9-9-9-9-9-9-9--|
A|-------------------------------------------------------------------|
E|-------------------------------------------------------------------|

Chorus
Guitar 1 (x3)  (Soft)
e|-0-0-0-0-0-0-0-0-|-0-0-0-0-0-0-0-0-|-0-0-0-0-0-0-0-0-|-0-0-0-0-0-0-0-0-|
B|-0-0-0-0-0-0-0-0-|-0-0-0-0-0-0-0-0-|-0-0-0-0-0-0-0-0-|-0-0-0-0-0-0-0-0-|
G|-4-4-4-4-4-4-4-4-|-4-4-4-4-4-4-4-4-|-4-4-4-4-4-4-4-4-|-4-4-4-4-4-4-4-4-|
D|-2-2-2-2-2-2-2-2-|-1-1-1-1-1-1-1-1-|-2-2-2-2-2-2-2-2-|-2-2-2-2-2-2-2-2-|
A|-4-4-4-4-4-4-4-4-|-----------------|-0-0-0-0-0-0-0-0-|-0-0-0-0-0-0-0-0-|
E|-----------------|-0-0-0-0-0-0-0-0-|-----------------|-----------------|

Verse
Guitar 1
e|---------------------------------|-0-0-0-0-0-0-0-0-0-0-0-0-0-0-0-0-|   
B|-0-0-0-0-0-0-0-0-0-0-0-0-0-0-0-0-|-0-0-0-0-0-0-0-0-0-0-0-0-0-0-0-0-|   
G|-4-4-4-4-4-4-4-4-4-4-4-4-4-4-4-4-|-4-4-4-4-4-4-4-4-4-4-4-4-4-4-4-4-| x2
D|-2-2-2-2-2-2-2-2-2-2-2-2-2-2-2-2-|-2-2-2-2-2-2-2-2-2-2-2-2-2-2-2-2-|      
A|-4-4-4-4-4-4-4-4-4-4-4-4-4-4-4-4-|-0-0-0-0-0-0-0-0-0-0-0-0-0-0-0-0-|     
E|---------------------------------|---------------------------------| 

e|---------------------------------|-0-0-0-0-0-0-0-0-0-0-0-0-0-0-0-0-|
B|-0-0-0-0-0-0-0-0-0-0-0-0-0-0-0-0-|-0-0-0-0-0-0-0-0-0-0-0-0-0-0-0-0-|
G|-4-4-4-4-4-4-4-4-4-4-4-4-4-4-4-4-|-4-4-4-4-4-4-4-4-4-4-4-4-4-4-4-4-|
D|-4-4-4-4-4-4-4-4-4-4-4-4-4-4-4-4-|-2-2-2-2-2-2-2-2-2-2-2-2-2-2-2-2-|
A|-2-2-2-2-2-2-2-2-2-2-2-2-2-2-2-2-|-0-0-0-0-0-0-0-0-0-0-0-0-0-0-0-0-|
E|---------------------------------|---------------------------------|

Guitar 2
e|-0-0-0-0-0-0-0-0-0-0-0-0-0-0-0-0-|-0-0-0-0-0-0-0-0-0-0-0/0--0--0---|
B|-0-0-0-0-0-0-0-0-0-0-0-0-0-0-0-0-|-0-0-0-0-0-0-0-0-0-0-0/0--0--0---|
G|-6-6-6-6-6-6-6-6-6-6-6-6-6-6-6-6-|-9-9-9-9-9-9-9-9-9-9-9/11-11-11--| x2
D|-6-6-6-6-6-6-6-6-6-6-6-6-6-6-6-6-|-9-9-9-9-9-9-9-9-9-9-9/11-11-11--|
A|---------------------------------|---------------------------------|
E|---------------------------------|---------------------------------|

e|--0-0-0-0-0-0-0-0-0-0-0-0-0-0-0-0-0-0-0-0-0-0-0-0-0-0-0-0-0-0-0-0--|
B|--0-0-0-0-0-0-0-0-0-0-0-0-0-0-0-0-0-0-0-0-0-0-0-0-0-0-0-0-0-0-0-0--|
G|--8-8-8-8-8-8-8-8-8-8/6/4-4-4-4-4-4-4-4-4-4/6/9-9-9-9-9-9-9-9-9-9--|
D|--9-9-9-9-9-9-9-9-9-9/6/4-4-4-4-4-4-4-4-4-4/6/9-9-9-9-9-9-9-9-9-9--|
A|-------------------------------------------------------------------|
E|-------------------------------------------------------------------|

Guitar 1
e|---------------------------------|-0-0-0-0-0-0-0-0-0-0-0-0-0-0-0-0-|   
B|-0-0-0-0-0-0-0-0-0-0-0-0-0-0-0-0-|-0-0-0-0-0-0-0-0-0-0-0-0-0-0-0-0-|   
G|-4-4-4-4-4-4-4-4-4-4-4-4-4-4-4-4-|-4-4-4-4-4-4-4-4-4-4-4-4-4-4-4-4-| x2
D|-2-2-2-2-2-2-2-2-2-2-2-2-2-2-2-2-|-2-2-2-2-2-2-2-2-2-2-2-2-2-2-2-2-|      
A|-4-4-4-4-4-4-4-4-4-4-4-4-4-4-4-4-|-0-0-0-0-0-0-0-0-0-0-0-0-0-0-0-0-|     
E|---------------------------------|---------------------------------| 

e|---------------------------------|-0-0-0-0-0-0-0-0-0-0-0-0-0-0-0-0-|
B|-0-0-0-0-0-0-0-0-0-0-0-0-0-0-0-0-|-0-0-0-0-0-0-0-0-0-0-0-0-0-0-0-0-|
G|-4-4-4-4-4-4-4-4-4-4-4-4-4-4-4-4-|-4-4-4-4-4-4-4-4-4-4-4-4-4-4-4-4-|
D|-4-4-4-4-4-4-4-4-4-4-4-4-4-4-4-4-|-2-2-2-2-2-2-2-2-2-2-2-2-2-2-2-2-|
A|-2-2-2-2-2-2-2-2-2-2-2-2-2-2-2-2-|-0-0-0-0-0-0-0-0-0-0-0-0-0-0-0-0-|
E|---------------------------------|---------------------------------|

Guitar 2
e|-0-0-0-0-0-0-0-0-0-0-0-0-0-0-0-0-|-0-0-0-0-0-0-0-0-0-0-0/0--0--0---|
B|-0-0-0-0-0-0-0-0-0-0-0-0-0-0-0-0-|-0-0-0-0-0-0-0-0-0-0-0/0--0--0---|
G|-6-6-6-6-6-6-6-6-6-6-6-6-6-6-6-6-|-9-9-9-9-9-9-9-9-9-9-9/11-11-11--| x2
D|-6-6-6-6-6-6-6-6-6-6-6-6-6-6-6-6-|-9-9-9-9-9-9-9-9-9-9-9/11-11-11--|
A|---------------------------------|---------------------------------|
E|---------------------------------|---------------------------------|

e|--0-0-0-0-0-0-0-0-0-0-0-0-0-0-0-0-0-0-0-0-0-0-0-0-0-0-0-0-0-0-0-0--|
B|--0-0-0-0-0-0-0-0-0-0-0-0-0-0-0-0-0-0-0-0-0-0-0-0-0-0-0-0-0-0-0-0--|
G|--8-8-8-8-8-8-8-8-8-8/6/4-4-4-4-4-4-4-4-4-4/6/9-9-9-9-9-9-9-9-9-9--|
D|--9-9-9-9-9-9-9-9-9-9/6/4-4-4-4-4-4-4-4-4-4/6/9-9-9-9-9-9-9-9-9-9--|
A|-------------------------------------------------------------------|
E|-------------------------------------------------------------------|

Chorus
Guitar 1 (x4) (Heavy)
e|-0-0-0-0-0-0-0-0-|-0-0-0-0-0-0-0-0-|-0-0-0-0-0-0-0-0-|-0-0-0-0-0-0-0-0-|
B|-0-0-0-0-0-0-0-0-|-0-0-0-0-0-0-0-0-|-0-0-0-0-0-0-0-0-|-0-0-0-0-0-0-0-0-|
G|-4-4-4-4-4-4-4-4-|-4-4-4-4-4-4-4-4-|-4-4-4-4-4-4-4-4-|-3-3-3-3-3-3-3-3-|
D|-2-2-2-2-2-2-2-2-|-1-1-1-1-1-1-1-1-|-2-2-2-2-2-2-2-2-|-4-4-4-4-4-4-4-4-|
A|-4-4-4-4-4-4-4-4-|-----------------|-0-0-0-0-0-0-0-0-|-4-4-4-4-4-4-4-4-|
E|-----------------|-0-0-0-0-0-0-0-0-|-----------------|-2-2-2-2-2-2-2-2-|

Guitar 2 
e|---------------|---------------|---------------|----------------------|
B|---------------|---------------|---------------|----------------------|
G|-6-6-6-6-6-6-6-|-8-8-8-8-8-8-8-|-9-9-9-9-9-9-9-|-11-11-11-11-11-11-11-|
D|-x-x-x-x-x-x-x-|-x-x-x-x-x-x-x-|-x-x-x-x-x-x-x-|-x--x--x--x--x--x--x--| x2
A|-4-4-4-4-4-4-4-|-6-6-6-6-6-6-6-|-7-7-7-7-7-7-7-|-9--9--9--9--9--9--9--|
E|---------------|---------------|---------------|----------------------|
[ Tab from: http://www.guitartabs.cc/tabs/f/foo_fighters/best_of_you_tab_ver_5.html ]
e|----------------|----------------|----------------|----------------|
B|----------------|----------------|----------------|----------------|
G|-13-13-13-13-13-|-16-16-16-16-16-|-18-18-18-18-18-|-15-15-15-15-15-|
D|-x--x--x--x--x--|-x--x--x--x--x--|-x--x--x--x--x--|-x--x--x--x--x--| x2
A|-11-11-11-11-11-|-14-14-14-14-14-|-16-16-16-16-16-|-13-13-13-13-13-|
E|----------------|----------------|----------------|----------------|

Interlude
Guitar 1
e|-----|
B|-----|
G|--13-| (Played behind Guitar 2 the whole time)
D|--x--|
A|--11-|
E|-----|

Guitar 2
e|------------------------------------------------|
B|------------------------------------------------|
G|--13-13-13-13-13-13-13-13-13-13-13-13-16-13-16--|
D|--x--x--x--x--x--x--x--x--x--x--x--x--x--x--x---|
A|--11-11-11-11-11-11-11-11-11-11-11-11-14-11-14--|
E|------------------------------------------------|
                                                                       
e|---------------------------------------------------|
B|---------------------------------------------------|
G|--18-18-18-18-16-16-16-16-16-16-16-16-16-16-16-16--|
D|--x--x--x--x--x--x--x--x--x--x--x--x--x--x--x--x---|
A|--16-16-16-16-14-14-14-14-14-14-14-14-14-14-14-14--|
E|---------------------------------------------------|

e|------------------------------------------------|
B|------------------------------------------------|
G|--13-13-13-13-13-13-13-13-13-13-13-13-16-13-16--|
D|--x--x--x--x--x--x--x--x--x--x--x--x--x--x--x---|
A|--11-11-11-11-11-11-11-11-11-11-11-11-14-11-14--|
E|------------------------------------------------|
                                                                      
e|---------------------------------------------------|
B|---------------------------------------------------|
G|--18-18-18-18-18-18-18-18-18-18-18-18-18-18-18-18--|
D|--x--x--x--x--x--x--x--x--x--x--x--x--x--x--x--x---|
A|--16-16-16-16-16-16-16-16-16-16-16-16-16-16-16-16--|
E|---------------------------------------------------|

Interlude 2
Guitar 1
e|-----|
B|-----|
G|--13-| (Played behind Guitar 2 the whole time)
D|--x--|
A|--11-|
E|-----|

Guitar 2
e|------------------------------|----------x-x-x-|-----------|
B|------------------------------|----------x-x-x-|-----------|
G|--11-11-9-8-|13-13-11-9-----9-|11-11-9-8-x-x-x-|13-13-11-9-|
D|--x--x--x-x-|x--x--x--x-----x-|x--x--x-x-x-x-x-|x--x--x--x-|
A|--9--9--7-6-|11-11-9--7-7-7-7-|9--9--7-6-x-x-x-|11-13-9--7-|
E|------------|-----------0-0---|----------x-x-x-|-----------|

Chorus
Guitar 1 (x4) (Heavy)
e|-0-0-0-0-0-0-0-0-|-0-0-0-0-0-0-0-0-|-0-0-0-0-0-0-0-0-|-0-0-0-0-0-0-0-0-|
B|-0-0-0-0-0-0-0-0-|-0-0-0-0-0-0-0-0-|-0-0-0-0-0-0-0-0-|-0-0-0-0-0-0-0-0-|
G|-4-4-4-4-4-4-4-4-|-4-4-4-4-4-4-4-4-|-4-4-4-4-4-4-4-4-|-3-3-3-3-3-3-3-3-|
D|-2-2-2-2-2-2-2-2-|-1-1-1-1-1-1-1-1-|-2-2-2-2-2-2-2-2-|-4-4-4-4-4-4-4-4-|
A|-4-4-4-4-4-4-4-4-|-----------------|-0-0-0-0-0-0-0-0-|-4-4-4-4-4-4-4-4-|
E|-----------------|-0-0-0-0-0-0-0-0-|-----------------|-2-2-2-2-2-2-2-2-|

Guitar 2 
e|---------------|---------------|---------------|----------------------|
B|---------------|---------------|---------------|----------------------|
G|-6-6-6-6-6-6-6-|-8-8-8-8-8-8-8-|-9-9-9-9-9-9-9-|-11-11-11-11-11-11-11-|
D|-x-x-x-x-x-x-x-|-x-x-x-x-x-x-x-|-x-x-x-x-x-x-x-|-x--x--x--x--x--x--x--| x2
A|-4-4-4-4-4-4-4-|-6-6-6-6-6-6-6-|-7-7-7-7-7-7-7-|-9--9--9--9--9--9--9--|
E|---------------|---------------|---------------|----------------------|

e|----------------|----------------|----------------|----------------|
B|----------------|----------------|----------------|----------------|
G|-13-13-13-13-13-|-16-16-16-16-16-|-18-18-18-18-18-|-15-15-15-15-15-|
D|-x--x--x--x--x--|-x--x--x--x--x--|-x--x--x--x--x--|-x--x--x--x--x--| x2
A|-11-11-11-11-11-|-14-14-14-14-14-|-16-16-16-16-16-|-13-13-13-13-13-|
E|----------------|----------------|----------------|----------------|

Guitar 1
e|---------------------------------|-0---0-0--0-0-0-0---0-0--0-0-0-0-|   
B|-0---0-0--0-0-0-0---0-0--0-0-0-2-|-0---0-0--0-0-0-0---0-0--0-0-0-0-|   
G|-4---4-4--4-4-4-4---4-4--4-4-4-4-|-4---4-4--4-4-4-4---4-4--4-4-4-4-| x2
D|-2---2-2--2-2-2-2---2-2--2-2-2-2-|-2---2-2--2-2-2-2---2-2--2-2-2-2-| 
A|-4---4-4--4-4-4-4---4-4--4-4-4-4-|-0---0-0--0-0-0-0---0-0--0-0-0-0-|
E|---------------------------------|---------------------------------| 

Guitar 1
e|-0-------------------------------|-0-------------------------------|
B|-0-------------------------------|-0-------------------------------|
G|-4-------------------------------|-4-------------------------------| x2
D|-4-------------------------------|-2-------------------------------|
A|-2-------------------------------|-0-------------------------------|
E|---------------------------------|---------------------------------|

Guitar 2
e|---------------------------------|-0-0-0-0-0-0-0-0-0-0-0-0-0-0-0-0-|
B|-0-0-0-0-0-0-0-0-0-0-0-0-0-0-0-0-|-0-0-0-0-0-0-0-0-0-0-0-0-0-0-0-0-|
G|-4-4-4-4-4-4-4-4-4-4-4-4-4-4-4-4-|-4-4-4-4-4-4-4-4-4-4-4-4-4-4-4-4-| x2
D|-4-4-4-4-4-4-4-4-4-4-4-4-4-4-4-4-|-2-2-2-2-2-2-2-2-2-2-2-2-2-2-2-2-|
A|-2-2-2-2-2-2-2-2-2-2-2-2-2-2-2-2-|-0-0-0-0-0-0-0-0-0-0-0-0-0-0-0-0-|
E|---------------------------------|---------------------------------|

Chorus
Guitar 1 (x4) (Heavy)
e|-0-0-0-0-0-0-0-0-|-0-0-0-0-0-0-0-0-|-0-0-0-0-0-0-0-0-|-0-0-0-0-0-0-0-0-|
B|-0-0-0-0-0-0-0-0-|-0-0-0-0-0-0-0-0-|-0-0-0-0-0-0-0-0-|-0-0-0-0-0-0-0-0-|
G|-4-4-4-4-4-4-4-4-|-4-4-4-4-4-4-4-4-|-4-4-4-4-4-4-4-4-|-3-3-3-3-3-3-3-3-|
D|-2-2-2-2-2-2-2-2-|-1-1-1-1-1-1-1-1-|-2-2-2-2-2-2-2-2-|-4-4-4-4-4-4-4-4-|
A|-4-4-4-4-4-4-4-4-|-----------------|-0-0-0-0-0-0-0-0-|-4-4-4-4-4-4-4-4-|
E|-----------------|-0-0-0-0-0-0-0-0-|-----------------|-2-2-2-2-2-2-2-2-|

Guitar 2 
e|---------------|---------------|---------------|----------------------|
B|---------------|---------------|---------------|----------------------|
G|-6-6-6-6-6-6-6-|-8-8-8-8-8-8-8-|-9-9-9-9-9-9-9-|-11-11-11-11-11-11-11-|
D|-x-x-x-x-x-x-x-|-x-x-x-x-x-x-x-|-x-x-x-x-x-x-x-|-x--x--x--x--x--x--x--| x2
A|-4-4-4-4-4-4-4-|-6-6-6-6-6-6-6-|-7-7-7-7-7-7-7-|-9--9--9--9--9--9--9--|
E|---------------|---------------|---------------|----------------------|

e|----------------|----------------|----------------|----------------|
B|----------------|----------------|----------------|----------------|
G|-13-13-13-13-13-|-16-16-16-16-16-|-18-18-18-18-18-|-15-15-15-15-15-|
D|-x--x--x--x--x--|-x--x--x--x--x--|-x--x--x--x--x--|-x--x--x--x--x--| x2
A|-11-11-11-11-11-|-14-14-14-14-14-|-16-16-16-16-16-|-13-13-13-13-13-|
E|----------------|----------------|----------------|----------------|

Outro
Both Guitars
e|---0-0----x-x-x--|----0-0----x-x-x---|	
B|---0-0----x-x-x--|----0-0----x-x-x---|	
G|---4-4----x-x-x--|----4-4----x-x-x---|
D|---2-2----x-x-x--|----2-2----x-x-x---|
A|---4-4----x-x-x--|----4-4----x-x-x---|
E|----------x-x-x--|-----------x-x-x---|
Comments