Foo Fighters - Best Of You Chords & Tabs

 

Best Of You Chords & Tabs

Foo Fighters Chords & Tabs

Version: 3 Type: Tab 0 ratings
1 star 2 stars 3 stars 4 stars 5 stars
comments

Best Of You Tab

Pretty simple. Took me 3 minutes to figure out whole song.
Below is a version made to play along with

- Artist Foo Fighters
- Song "Best of You"
- Album Soon to be released 2005

Enjoy!

Verse:
|--0--0--0--0--0--0--0--0--0--0--0--0--0--0--0--0---|
|--0--0--0--0--0--0--0--0--0--0--0--0--0--0--0--0---|
|--9--9--9--9--9--9--9--9--9--9--9--9--9--9--9--9---|
|--11-11-11-11-11-11-11-11-11-11-11-11-11-11-11-11--|
|---------------------------------------------------|
|---------------------------------------------------|

|--0--0--0--0--0--0--0--0--0--0--0--0--0--0--0--0---|
|--0--0--0--0--0--0--0--0--0--0--0--0--0--0--0--0---|
|--9--9--9--9--9--9--9--9--9--9--9--9--9--9--9--9---|
|--7--7--7--7--7--7--7--7--7--7--7--7--7--7--7--7---|
|---------------------------------------------------|
|---------------------------------------------------| x 2


|--0--0--0--0--0--0--0--0--0--0--0--0--0--0--0--0---|
|--0--0--0--0--0--0--0--0--0--0--0--0--0--0--0--0---|
|--8--8--8--8--8--8--8--8--8--8--8--8--8--8--8--8---|
|--9--9--9--9--9--9--9--9--9--9--9--9--9--9--9--9---|
|---------------------------------------------------|
|---------------------------------------------------|

|--0--0--0--0--0--0--0--0--0--0--0--0--0--0--0--0---|
|--0--0--0--0--0--0--0--0--0--0--0--0--0--0--0--0---|
|--9--9--9--9--9--9--9--9--9--9--9--9--9--9--9--9---|
|--7--7--7--7--7--7--7--7--7--7--7--7--7--7--7--7---|
|---------------------------------------------------|
|---------------------------------------------------| x 1

Chorus: (is someone getting the best)

|--0--0--0--0--0--0--0--0---|
|--0--0--0--0--0--0--0--0---|
|--9--9--9--9--9--9--9--9---|
|--11-11-11-11-11-11-11-11--|
|---------------------------|
|---------------------------|

|--0--0--0--0--0--0--0--0---|
|--0--0--0--0--0--0--0--0---|
|--8--8--8--8--8--8--8--8---|
|--9--9--9--9--9--9--9--9---|
|---------------------------|
|---------------------------|

|--0--0--0--0--0--0--0--0--0--0--0--0--0--0--0--0---|
|--0--0--0--0--0--0--0--0--0--0--0--0--0--0--0--0---|
|--9--9--9--9--9--9--9--9--9--9--9--9--9--9--9--9---|
|--7--7--7--7--7--7--7--7--7--7--7--7--7--7--7--7---|
|---------------------------------------------------|
|---------------------------------------------------| x 3

Verse 2:
|--0--0--0--0--0--0--0--0--0--0--0--0--0--0--0--0---|
|--0--0--0--0--0--0--0--0--0--0--0--0--0--0--0--0---|
|--9--9--9--9--9--9--9--9--9--9--9--9--9--9--9--9---|
|--11-11-11-11-11-11-11-11-11-11-11-11-11-11-11-11--|
|---------------------------------------------------|
|---------------------------------------------------|

|--0--0--0--0--0--0--0--0--0--0--0--0--0--0--0--0---|
|--0--0--0--0--0--0--0--0--0--0--0--0--0--0--0--0---|
|--9--9--9--9--9--9--9--9--9--9--9--9--9--9--9--9---|
|--7--7--7--7--7--7--7--7--7--7--7--7--7--7--7--7---|
|---------------------------------------------------|
|---------------------------------------------------| x 2


|--0--0--0--0--0--0--0--0--0--0--0--0--0--0--0--0---|
|--0--0--0--0--0--0--0--0--0--0--0--0--0--0--0--0---|
|--8--8--8--8--8--8--8--8--8--8--8--8--8--8--8--8---|
|--9--9--9--9--9--9--9--9--9--9--9--9--9--9--9--9---|
|---------------------------------------------------|
|---------------------------------------------------|

|--0--0--0--0--0--0--0--0--0--0--0--0--0--0--0--0---|
|--0--0--0--0--0--0--0--0--0--0--0--0--0--0--0--0---|
|--9--9--9--9--9--9--9--9--9--9--9--9--9--9--9--9---|
|--7--7--7--7--7--7--7--7--7--7--7--7--7--7--7--7---|
|---------------------------------------------------|
|---------------------------------------------------| x 1

Repeat all of verse again

Chorus:

|--0--0--0--0--0--0--0--0---|
|--0--0--0--0--0--0--0--0---|
|--9--9--9--9--9--9--9--9---|
|--11-11-11-11-11-11-11-11--|
|---------------------------|
|---------------------------|

|--0--0--0--0--0--0--0--0---|
|--0--0--0--0--0--0--0--0---|
|--8--8--8--8--8--8--8--8---|
|--9--9--9--9--9--9--9--9---|
|---------------------------|
|---------------------------|

|--0--0--0--0--0--0--0--0---|
|--0--0--0--0--0--0--0--0---|
|--9--9--9--9--9--9--9--9---|
|--7--7--7--7--7--7--7--7---|
|---------------------------|
|---------------------------|

|--0--0--0--0--0--0--0--0---|
|--0--0--0--0--0--0--0--0---|
|--6--6--6--6--6--6--6--6---|
|--4--4--4--4--4--4--4--4---|
|---------------------------|
|---------------------------| x 4

Bridge: (Oh...)

|--0--0--0--0--0--0--0--0--0--0--0--0--0--0--0--0---|
|--0--0--0--0--0--0--0--0--0--0--0--0--0--0--0--0---|
|--9--9--9--9--9--9--9--9--9--9--9--9--9--9--9--9---|
|--11-11-11-11-11-11-11-11-11-11-11-11-11-11-11-11--|
|---------------------------------------------------|
|---------------------------------------------------|

|--0--0--0--0--0--0--0--0--0--0--0--0--0--0--0--0---|
|--0--0--0--0--0--0--0--0--0--0--0--0--0--0--0--0---|
|--9--9--9--9--9--9--9--9--9--9--9--9--9--9--9--9---|
|--7--7--7--7--7--7--7--7--7--7--7--7--7--7--7--7---|
|---------------------------------------------------|
|---------------------------------------------------| x 2

|--0--0--0--0--0--0--0--0--0--0--0--0--0--0--0--0---|
|--0--0--0--0--0--0--0--0--0--0--0--0--0--0--0--0---|
|--8--8--8--8--8--8--8--8--8--8--8--8--8--8--8--8---|
|--9--9--9--9--9--9--9--9--9--9--9--9--9--9--9--9---|
|---------------------------------------------------|
|---------------------------------------------------|

|--0--0--0--0--0--0--0--0--0--0--0--0--0--0--0--0---|
|--0--0--0--0--0--0--0--0--0--0--0--0--0--0--0--0---|
|--9--9--9--9--9--9--9--9--9--9--9--9--9--9--9--9---|
|--7--7--7--7--7--7--7--7--7--7--7--7--7--7--7--7---|
|---------------------------------------------------|
|---------------------------------------------------| x 2

Pick slide

Chorus: x 3

Verse: same as verse 2

Chorus: x 3

Ending is just:

|--0--0--0--0--0--0--0--0--0--0--0--0--0--0--0--0---|
|--0--0--0--0--0--0--0--0--0--0--0--0--0--0--0--0---|
|--9--9--9--9--9--9--9--9--9--9--9--9--9--9--9--9---|
|--11-11-11-11-11-11-11-11-11-11-11-11-11-11-11-11--|
|---------------------------------------------------|
|---------------------------------------------------|


   ~~~~~~~~~~~~~~~~~~~~~~~~~~~~~~~~~~~~~~~~~~~~~~~~~~~~~~~~~~~~

This version of Best of You is made so you can play along while listening.
All number of strums are correct and i'm pretty sure chords are too.
The lyrics are their for guidance of where you are, not 100% accurately 
placed



Enjoy!

I've got another confession to make
|--0--0--0--0--0--0--0--0--0--0--0--0--0--0--0--0---|
|--0--0--0--0--0--0--0--0--0--0--0--0--0--0--0--0---|
|--9--9--9--9--9--9--9--9--9--9--9--9--9--9--9--9---|
|--11-11-11-11-11-11-11-11-11-11-11-11-11-11-11-11--|
|---------------------------------------------------|
|---------------------------------------------------|

I'm your fool
|--0--0--0--0--0--0--0--0--0--0--0--0--0--0--0--0---|
|--0--0--0--0--0--0--0--0--0--0--0--0--0--0--0--0---|
|--9--9--9--9--9--9--9--9--9--9--9--9--9--9--9--9---|
|--7--7--7--7--7--7--7--7--7--7--7--7--7--7--7--7---|
|---------------------------------------------------|
|---------------------------------------------------|

Everyone's got their chains to break
|--0--0--0--0--0--0--0--0--0--0--0--0--0--0--0--0---|
|--0--0--0--0--0--0--0--0--0--0--0--0--0--0--0--0---|
|--9--9--9--9--9--9--9--9--9--9--9--9--9--9--9--9---|
|--11-11-11-11-11-11-11-11-11-11-11-11-11-11-11-11--|
|---------------------------------------------------|
|---------------------------------------------------|

Holding you
|--0--0--0--0--0--0--0--0--0--0--0--0--0--0--0--0---|
|--0--0--0--0--0--0--0--0--0--0--0--0--0--0--0--0---|
|--9--9--9--9--9--9--9--9--9--9--9--9--9--9--9--9---|
|--7--7--7--7--7--7--7--7--7--7--7--7--7--7--7--7---|
|---------------------------------------------------|
|---------------------------------------------------|

Were you born to resist
|--0--0--0--0--0--0--0--0--0--0--0--0--0--0--0--0---|
|--0--0--0--0--0--0--0--0--0--0--0--0--0--0--0--0---|
|--8--8--8--8--8--8--8--8--8--8--8--8--8--8--8--8---|
|--9--9--9--9--9--9--9--9--9--9--9--9--9--9--9--9---|
|---------------------------------------------------|
|---------------------------------------------------|

Or be abused
|--0--0--0--0--0--0--0--0--0--0--0--0--0--0--0--0---|
|--0--0--0--0--0--0--0--0--0--0--0--0--0--0--0--0---|
|--9--9--9--9--9--9--9--9--9--9--9--9--9--9--9--9---|
|--7--7--7--7--7--7--7--7--7--7--7--7--7--7--7--7---|
|---------------------------------------------------|
|---------------------------------------------------|

Is someone getting the best,
|--0--0--0--0--0--0--0--0---|
|--0--0--0--0--0--0--0--0---|
|--9--9--9--9--9--9--9--9---|
|--11-11-11-11-11-11-11-11--|
|---------------------------|
|---------------------------|

the best, the best
|--0--0--0--0--0--0--0--0---|
|--0--0--0--0--0--0--0--0---|
|--8--8--8--8--8--8--8--8---|
|--9--9--9--9--9--9--9--9---|
|---------------------------|
|---------------------------|

the best of you?
|--0--0--0--0--0--0--0--0--0--0--0--0--0--0--0--0---|
|--0--0--0--0--0--0--0--0--0--0--0--0--0--0--0--0---|
|--9--9--9--9--9--9--9--9--9--9--9--9--9--9--9--9---|
|--7--7--7--7--7--7--7--7--7--7--7--7--7--7--7--7---|
|---------------------------------------------------|
|---------------------------------------------------|

Is someone getting the best
|--0--0--0--0--0--0--0--0---|
|--0--0--0--0--0--0--0--0---|
|--9--9--9--9--9--9--9--9---|
|--11-11-11-11-11-11-11-11--|
|---------------------------|
|---------------------------|

the best, the best
|--0--0--0--0--0--0--0--0---|
|--0--0--0--0--0--0--0--0---|
|--8--8--8--8--8--8--8--8---|
|--9--9--9--9--9--9--9--9---|
|---------------------------|
|---------------------------|

the best of you?
|--0--0--0--0--0--0--0--0--0--0--0--0--0--0--0--0---|
|--0--0--0--0--0--0--0--0--0--0--0--0--0--0--0--0---|
|--9--9--9--9--9--9--9--9--9--9--9--9--9--9--9--9---|
|--7--7--7--7--7--7--7--7--7--7--7--7--7--7--7--7---|
|---------------------------------------------------|
|---------------------------------------------------|

Are you gone
|--0--0--0--0--0--0--0--0---|
|--0--0--0--0--0--0--0--0---|
|--9--9--9--9--9--9--9--9---|
|--11-11-11-11-11-11-11-11--|
|---------------------------|
|---------------------------|

and on to something 
|--0--0--0--0--0--0--0--0---|
|--0--0--0--0--0--0--0--0---|
|--8--8--8--8--8--8--8--8---|
|--9--9--9--9--9--9--9--9---|
|---------------------------|
|---------------------------|

new?
|--0--0--0--0--0--0--0--0--0--0--0--0--0--0--0--0---|
|--0--0--0--0--0--0--0--0--0--0--0--0--0--0--0--0---|
|--9--9--9--9--9--9--9--9--9--9--9--9--9--9--9--9---|
|--7--7--7--7--7--7--7--7--7--7--7--7--7--7--7--7---|
|---------------------------------------------------|
|---------------------------------------------------|

I needed somewhere to hang my head
|--0--0--0--0--0--0--0--0--0--0--0--0--0--0--0--0---|
|--0--0--0--0--0--0--0--0--0--0--0--0--0--0--0--0---|
|--9--9--9--9--9--9--9--9--9--9--9--9--9--9--9--9---|
|--11-11-11-11-11-11-11-11-11-11-11-11-11-11-11-11--|
|---------------------------------------------------|
|---------------------------------------------------|

Without your noose
|--0--0--0--0--0--0--0--0--0--0--0--0--0--0--0--0---|
|--0--0--0--0--0--0--0--0--0--0--0--0--0--0--0--0---|
|--9--9--9--9--9--9--9--9--9--9--9--9--9--9--9--9---|
|--7--7--7--7--7--7--7--7--7--7--7--7--7--7--7--7---|
|---------------------------------------------------|
|---------------------------------------------------|

You gave me something that I didn't have
|--0--0--0--0--0--0--0--0--0--0--0--0--0--0--0--0---|
|--0--0--0--0--0--0--0--0--0--0--0--0--0--0--0--0---|
|--9--9--9--9--9--9--9--9--9--9--9--9--9--9--9--9---|
|--11-11-11-11-11-11-11-11-11-11-11-11-11-11-11-11--|
|---------------------------------------------------|
|---------------------------------------------------|

But had no use
|--0--0--0--0--0--0--0--0--0--0--0--0--0--0--0--0---|
|--0--0--0--0--0--0--0--0--0--0--0--0--0--0--0--0---|
|--9--9--9--9--9--9--9--9--9--9--9--9--9--9--9--9---|
|--7--7--7--7--7--7--7--7--7--7--7--7--7--7--7--7---|
|---------------------------------------------------|
|---------------------------------------------------|

I was too weak to give in
|--0--0--0--0--0--0--0--0--0--0--0--0--0--0--0--0---|
|--0--0--0--0--0--0--0--0--0--0--0--0--0--0--0--0---|
|--8--8--8--8--8--8--8--8--8--8--8--8--8--8--8--8---|
|--9--9--9--9--9--9--9--9--9--9--9--9--9--9--9--9---|
|---------------------------------------------------|
|---------------------------------------------------|

Too strong to lose
|--0--0--0--0--0--0--0--0--0--0--0--0--0--0--0--0---|
|--0--0--0--0--0--0--0--0--0--0--0--0--0--0--0--0---|
|--9--9--9--9--9--9--9--9--9--9--9--9--9--9--9--9---|
|--7--7--7--7--7--7--7--7--7--7--7--7--7--7--7--7---|
|---------------------------------------------------|
|---------------------------------------------------|

My heart is under arrest again
|--0--0--0--0--0--0--0--0--0--0--0--0--0--0--0--0---|
|--0--0--0--0--0--0--0--0--0--0--0--0--0--0--0--0---|
|--9--9--9--9--9--9--9--9--9--9--9--9--9--9--9--9---|
|--11-11-11-11-11-11-11-11-11-11-11-11-11-11-11-11--|
|---------------------------------------------------|
|---------------------------------------------------|

But I break loose
|--0--0--0--0--0--0--0--0--0--0--0--0--0--0--0--0---|
|--0--0--0--0--0--0--0--0--0--0--0--0--0--0--0--0---|
|--9--9--9--9--9--9--9--9--9--9--9--9--9--9--9--9---|
|--7--7--7--7--7--7--7--7--7--7--7--7--7--7--7--7---|
|---------------------------------------------------|
|---------------------------------------------------|

My head is giving me life or death
|--0--0--0--0--0--0--0--0--0--0--0--0--0--0--0--0---|
|--0--0--0--0--0--0--0--0--0--0--0--0--0--0--0--0---|
|--9--9--9--9--9--9--9--9--9--9--9--9--9--9--9--9---|
|--11-11-11-11-11-11-11-11-11-11-11-11-11-11-11-11--|
|---------------------------------------------------|
|---------------------------------------------------|

But I can't choose
|--0--0--0--0--0--0--0--0--0--0--0--0--0--0--0--0---|
|--0--0--0--0--0--0--0--0--0--0--0--0--0--0--0--0---|
|--9--9--9--9--9--9--9--9--9--9--9--9--9--9--9--9---|
|--7--7--7--7--7--7--7--7--7--7--7--7--7--7--7--7---|
|---------------------------------------------------|
|---------------------------------------------------|

I swear I'll never give in
|--0--0--0--0--0--0--0--0--0--0--0--0--0--0--0--0---|
|--0--0--0--0--0--0--0--0--0--0--0--0--0--0--0--0---|
|--8--8--8--8--8--8--8--8--8--8--8--8--8--8--8--8---|
|--9--9--9--9--9--9--9--9--9--9--9--9--9--9--9--9---|
|---------------------------------------------------|
|---------------------------------------------------|

I refuse
|--0--0--0--0--0--0--0--0--0--0--0--0--0--0--0--0---|
|--0--0--0--0--0--0--0--0--0--0--0--0--0--0--0--0---|
|--9--9--9--9--9--9--9--9--9--9--9--9--9--9--9--9---|
|--7--7--7--7--7--7--7--7--7--7--7--7--7--7--7--7---|
|---------------------------------------------------|
|---------------------------------------------------|

Is someone getting the best
|--0--0--0--0--0--0--0--0---|
|--0--0--0--0--0--0--0--0---|
|--9--9--9--9--9--9--9--9---|
|--11-11-11-11-11-11-11-11--|
|---------------------------|
|---------------------------|

the best, the best
|--0--0--0--0--0--0--0--0---|
|--0--0--0--0--0--0--0--0---|
|--8--8--8--8--8--8--8--8---|
|--9--9--9--9--9--9--9--9---|
|---------------------------|
|---------------------------|

the best of you?
|--0--0--0--0--0--0--0--0---|
|--0--0--0--0--0--0--0--0---|
|--9--9--9--9--9--9--9--9---|
|--7--7--7--7--7--7--7--7---|
|---------------------------|
|---------------------------|

|--0--0--0--0--0--0--0--0---|
|--0--0--0--0--0--0--0--0---|
|--6--6--6--6--6--6--6--6---|
|--4--4--4--4--4--4--4--4---|
|---------------------------|
|---------------------------|

Is someone getting the best
|--0--0--0--0--0--0--0--0---|
|--0--0--0--0--0--0--0--0---|
|--9--9--9--9--9--9--9--9---|
|--11-11-11-11-11-11-11-11--|
|---------------------------|
|---------------------------|
[ Tab from: http://www.guitartabs.cc/tabs/f/foo_fighters/best_of_you_tab_ver_3.html ]
the best, the best
|--0--0--0--0--0--0--0--0---|
|--0--0--0--0--0--0--0--0---|
|--8--8--8--8--8--8--8--8---|
|--9--9--9--9--9--9--9--9---|
|---------------------------|
|---------------------------|

the best of you?
|--0--0--0--0--0--0--0--0---|
|--0--0--0--0--0--0--0--0---|
|--9--9--9--9--9--9--9--9---|
|--7--7--7--7--7--7--7--7---|
|---------------------------|
|---------------------------|

|--0--0--0--0--0--0--0--0---|
|--0--0--0--0--0--0--0--0---|
|--6--6--6--6--6--6--6--6---|
|--4--4--4--4--4--4--4--4---|
|---------------------------|
|---------------------------|

Has someone taken your faith?, It's real
|--0--0--0--0--0--0--0--0---|
|--0--0--0--0--0--0--0--0---|
|--9--9--9--9--9--9--9--9---|
|--11-11-11-11-11-11-11-11--|
|---------------------------|
|---------------------------|

The pain you feel
|--0--0--0--0--0--0--0--0---|
|--0--0--0--0--0--0--0--0---|
|--8--8--8--8--8--8--8--8---|
|--9--9--9--9--9--9--9--9---|
|---------------------------|
|---------------------------|

You trust, you must, confess
|--0--0--0--0--0--0--0--0---|
|--0--0--0--0--0--0--0--0---|
|--9--9--9--9--9--9--9--9---|
|--7--7--7--7--7--7--7--7---|
|---------------------------|
|---------------------------|


|--0--0--0--0--0--0--0--0---|
|--0--0--0--0--0--0--0--0---|
|--6--6--6--6--6--6--6--6---|
|--4--4--4--4--4--4--4--4---|
|---------------------------|
|---------------------------|

Is someone getting the best
|--0--0--0--0--0--0--0--0---|
|--0--0--0--0--0--0--0--0---|
|--9--9--9--9--9--9--9--9---|
|--11-11-11-11-11-11-11-11--|
|---------------------------|
|---------------------------|

the best, the best
|--0--0--0--0--0--0--0--0---|
|--0--0--0--0--0--0--0--0---|
|--8--8--8--8--8--8--8--8---|
|--9--9--9--9--9--9--9--9---|
|---------------------------|
|---------------------------|

the best of you?
|--0--0--0--0--0--0--0--0---|
|--0--0--0--0--0--0--0--0---|
|--9--9--9--9--9--9--9--9---|
|--7--7--7--7--7--7--7--7---|
|---------------------------|
|---------------------------|

|--0--0--0--0--0--0--0--0---|
|--0--0--0--0--0--0--0--0---|
|--6--6--6--6--6--6--6--6---|
|--4--4--4--4--4--4--4--4---|
|---------------------------|
|---------------------------|

Oh......
|--0--0--0--0--0--0--0--0--0--0--0--0--0--0--0--0---|
|--0--0--0--0--0--0--0--0--0--0--0--0--0--0--0--0---|
|--9--9--9--9--9--9--9--9--9--9--9--9--9--9--9--9---|
|--11-11-11-11-11-11-11-11-11-11-11-11-11-11-11-11--|
|---------------------------------------------------|
|---------------------------------------------------|

|--0--0--0--0--0--0--0--0--0--0--0--0--0--0--0--0---|
|--0--0--0--0--0--0--0--0--0--0--0--0--0--0--0--0---|
|--9--9--9--9--9--9--9--9--9--9--9--9--9--9--9--9---|
|--7--7--7--7--7--7--7--7--7--7--7--7--7--7--7--7---|
|---------------------------------------------------|
|---------------------------------------------------|

|--0--0--0--0--0--0--0--0--0--0--0--0--0--0--0--0---|
|--0--0--0--0--0--0--0--0--0--0--0--0--0--0--0--0---|
|--9--9--9--9--9--9--9--9--9--9--9--9--9--9--9--9---|
|--11-11-11-11-11-11-11-11-11-11-11-11-11-11-11-11--|
|---------------------------------------------------|
|---------------------------------------------------|

|--0--0--0--0--0--0--0--0--0--0--0--0--0--0--0--0---|
|--0--0--0--0--0--0--0--0--0--0--0--0--0--0--0--0---|
|--9--9--9--9--9--9--9--9--9--9--9--9--9--9--9--9---|
|--7--7--7--7--7--7--7--7--7--7--7--7--7--7--7--7---|
|---------------------------------------------------|
|---------------------------------------------------|

Oh oh oh
|--0--0--0--0--0--0--0--0--0--0--0--0--0--0--0--0---|
|--0--0--0--0--0--0--0--0--0--0--0--0--0--0--0--0---|
|--8--8--8--8--8--8--8--8--8--8--8--8--8--8--8--8---|
|--9--9--9--9--9--9--9--9--9--9--9--9--9--9--9--9---|
|---------------------------------------------------|
|---------------------------------------------------|

Oh oh oh
|--0--0--0--0--0--0--0--0--0--0--0--0--0--0--0--0---|
|--0--0--0--0--0--0--0--0--0--0--0--0--0--0--0--0---|
|--9--9--9--9--9--9--9--9--9--9--9--9--9--9--9--9---|
|--7--7--7--7--7--7--7--7--7--7--7--7--7--7--7--7---|
|---------------------------------------------------|
|---------------------------------------------------|

Oh oh oh
|--0--0--0--0--0--0--0--0--0--0--0--0--0--0--0--0---|
|--0--0--0--0--0--0--0--0--0--0--0--0--0--0--0--0---|
|--8--8--8--8--8--8--8--8--8--8--8--8--8--8--8--8---|
|--9--9--9--9--9--9--9--9--9--9--9--9--9--9--9--9---|
|---------------------------------------------------|
|---------------------------------------------------|

Oh oh oh
|--0--0--0--0--0--0--0--0--0--0--0--0--0--0--0--0---|
|--0--0--0--0--0--0--0--0--0--0--0--0--0--0--0--0---|
|--9--9--9--9--9--9--9--9--9--9--9--9--9--9--9--9---|
|--7--7--7--7--7--7--7--7--7--7--7--7--7--7--7--7---|
|---------------------------------------------------|
|---------------------------------------------------|

[Pick Slide with wah]

Has someone taken your faith?
|--0--0--0--0--0--0--0--0---|
|--0--0--0--0--0--0--0--0---|
|--9--9--9--9--9--9--9--9---|
|--11-11-11-11-11-11-11-11--|
|---------------------------|
|---------------------------|

Its real, the pain you feel
|--0--0--0--0--0--0--0--0---|
|--0--0--0--0--0--0--0--0---|
|--8--8--8--8--8--8--8--8---|
|--9--9--9--9--9--9--9--9---|
|---------------------------|
|---------------------------|

The life, the love
|--0--0--0--0--0--0--0--0---|
|--0--0--0--0--0--0--0--0---|
|--9--9--9--9--9--9--9--9---|
|--7--7--7--7--7--7--7--7---|
|---------------------------|
|---------------------------|

You die to heal
|--0--0--0--0--0--0--0--0---|
|--0--0--0--0--0--0--0--0---|
|--6--6--6--6--6--6--6--6---|
|--4--4--4--4--4--4--4--4---|
|---------------------------|
|---------------------------|

The hope that starts
|--0--0--0--0--0--0--0--0---|
|--0--0--0--0--0--0--0--0---|
|--9--9--9--9--9--9--9--9---|
|--11-11-11-11-11-11-11-11--|
|---------------------------|
|---------------------------|

The broken hearts
|--0--0--0--0--0--0--0--0---|
|--0--0--0--0--0--0--0--0---|
|--8--8--8--8--8--8--8--8---|
|--9--9--9--9--9--9--9--9---|
|---------------------------|
|---------------------------|

You trust, you must, confess 
|--0--0--0--0--0--0--0--0---|
|--0--0--0--0--0--0--0--0---|
|--9--9--9--9--9--9--9--9---|
|--7--7--7--7--7--7--7--7---|
|---------------------------|
|---------------------------|

|--0--0--0--0--0--0--0--0---|
|--0--0--0--0--0--0--0--0---|
|--6--6--6--6--6--6--6--6---|
|--4--4--4--4--4--4--4--4---|
|---------------------------|
|---------------------------|

Is someone getting the best
|--0--0--0--0--0--0--0--0---|
|--0--0--0--0--0--0--0--0---|
|--9--9--9--9--9--9--9--9---|
|--11-11-11-11-11-11-11-11--|
|---------------------------|
|---------------------------|

the best, the best
|--0--0--0--0--0--0--0--0---|
|--0--0--0--0--0--0--0--0---|
|--8--8--8--8--8--8--8--8---|
|--9--9--9--9--9--9--9--9---|
|---------------------------|
|---------------------------|

the best of you?
|--0--0--0--0--0--0--0--0---|
|--0--0--0--0--0--0--0--0---|
|--9--9--9--9--9--9--9--9---|
|--7--7--7--7--7--7--7--7---|
|---------------------------|
|---------------------------|

|--0--0--0--0--0--0--0--0---|
|--0--0--0--0--0--0--0--0---|
|--6--6--6--6--6--6--6--6---|
|--4--4--4--4--4--4--4--4---|
|---------------------------|
|---------------------------|

Is someone getting the best
|--0--0--0--0--0--0--0--0---|
|--0--0--0--0--0--0--0--0---|
|--9--9--9--9--9--9--9--9---|
|--11-11-11-11-11-11-11-11--|
|---------------------------|
|---------------------------|

the best, the best,
|--0--0--0--0--0--0--0--0---|
|--0--0--0--0--0--0--0--0---|
|--8--8--8--8--8--8--8--8---|
|--9--9--9--9--9--9--9--9---|
|---------------------------|
|---------------------------|

the best of you?
|--0--0--0--0--0--0--0--0---|
|--0--0--0--0--0--0--0--0---|
|--9--9--9--9--9--9--9--9---|
|--7--7--7--7--7--7--7--7---|
|---------------------------|
|---------------------------|

|--0--0--0--0--0--0--0--0---|
|--0--0--0--0--0--0--0--0---|
|--6--6--6--6--6--6--6--6---|
|--4--4--4--4--4--4--4--4---|
|---------------------------|
|---------------------------|

I've got another confession my friend
|--0--0--0--0--0--0--0--0--0--0--0--0--0--0--0--0---|
|--0--0--0--0--0--0--0--0--0--0--0--0--0--0--0--0---|
|--9--9--9--9--9--9--9--9--9--9--9--9--9--9--9--9---|
|--11-11-11-11-11-11-11-11-11-11-11-11-11-11-11-11--|
|---------------------------------------------------|
|---------------------------------------------------|

I'm no fool
|--0--0--0--0--0--0--0--0--0--0--0--0--0--0--0--0---|
|--0--0--0--0--0--0--0--0--0--0--0--0--0--0--0--0---|
|--9--9--9--9--9--9--9--9--9--9--9--9--9--9--9--9---|
|--7--7--7--7--7--7--7--7--7--7--7--7--7--7--7--7---|
|---------------------------------------------------|
|---------------------------------------------------|

I'm getting tired of starting again
|--0--0--0--0--0--0--0--0--0--0--0--0--0--0--0--0---|
|--0--0--0--0--0--0--0--0--0--0--0--0--0--0--0--0---|
|--9--9--9--9--9--9--9--9--9--9--9--9--9--9--9--9---|
|--11-11-11-11-11-11-11-11-11-11-11-11-11-11-11-11--|
|---------------------------------------------------|
|---------------------------------------------------|

somewhere new
|--0--0--0--0--0--0--0--0--0--0--0--0--0--0--0--0---|
|--0--0--0--0--0--0--0--0--0--0--0--0--0--0--0--0---|
|--9--9--9--9--9--9--9--9--9--9--9--9--9--9--9--9---|
|--7--7--7--7--7--7--7--7--7--7--7--7--7--7--7--7---|
|---------------------------------------------------|
|---------------------------------------------------|

Were you born to resist
|--0--0--0--0--0--0--0--0--0--0--0--0--0--0--0--0---|
|--0--0--0--0--0--0--0--0--0--0--0--0--0--0--0--0---|
|--8--8--8--8--8--8--8--8--8--8--8--8--8--8--8--8---|
|--9--9--9--9--9--9--9--9--9--9--9--9--9--9--9--9---|
|---------------------------------------------------|
|---------------------------------------------------|

or be abused
|--0--0--0--0--0--0--0--0--0--0--0--0--0--0--0--0---|
|--0--0--0--0--0--0--0--0--0--0--0--0--0--0--0--0---|
|--9--9--9--9--9--9--9--9--9--9--9--9--9--9--9--9---|
|--7--7--7--7--7--7--7--7--7--7--7--7--7--7--7--7---|
|---------------------------------------------------|
|---------------------------------------------------|

I swear I'll never give in
|--0--0--0--0--0--0--0--0--0--0--0--0--0--0--0--0---|
|--0--0--0--0--0--0--0--0--0--0--0--0--0--0--0--0---|
|--8--8--8--8--8--8--8--8--8--8--8--8--8--8--8--8---|
|--9--9--9--9--9--9--9--9--9--9--9--9--9--9--9--9---|
|---------------------------------------------------|
|---------------------------------------------------|

I refuse
|--0--0--0--0--0--0--0--0--0--0--0--0--0--0--0--0---|
|--0--0--0--0--0--0--0--0--0--0--0--0--0--0--0--0---|
|--9--9--9--9--9--9--9--9--9--9--9--9--9--9--9--9---|
|--7--7--7--7--7--7--7--7--7--7--7--7--7--7--7--7---|
|---------------------------------------------------|
|---------------------------------------------------|

Is someone getting the best
|--0--0--0--0--0--0--0--0---|
|--0--0--0--0--0--0--0--0---|
|--9--9--9--9--9--9--9--9---|
|--11-11-11-11-11-11-11-11--|
|---------------------------|
|---------------------------|

the best, the best
|--0--0--0--0--0--0--0--0---|
|--0--0--0--0--0--0--0--0---|
|--8--8--8--8--8--8--8--8---|
|--9--9--9--9--9--9--9--9---|
|---------------------------|
|---------------------------|

the best of you?
|--0--0--0--0--0--0--0--0---|
|--0--0--0--0--0--0--0--0---|
|--9--9--9--9--9--9--9--9---|
|--7--7--7--7--7--7--7--7---|
|---------------------------|
|---------------------------|

|--0--0--0--0--0--0--0--0---|
|--0--0--0--0--0--0--0--0---|
|--6--6--6--6--6--6--6--6---|
|--4--4--4--4--4--4--4--4---|
|---------------------------|
|---------------------------|

Is someone getting the best
|--0--0--0--0--0--0--0--0---|
|--0--0--0--0--0--0--0--0---|
|--9--9--9--9--9--9--9--9---|
|--11-11-11-11-11-11-11-11--|
|---------------------------|
|---------------------------|

the best, the best,
|--0--0--0--0--0--0--0--0---|
|--0--0--0--0--0--0--0--0---|
|--8--8--8--8--8--8--8--8---|
|--9--9--9--9--9--9--9--9---|
|---------------------------|
|---------------------------|

the best of you?
|--0--0--0--0--0--0--0--0---|
|--0--0--0--0--0--0--0--0---|
|--9--9--9--9--9--9--9--9---|
|--7--7--7--7--7--7--7--7---|
|---------------------------|
|---------------------------|

|--0--0--0--0--0--0--0--0---|
|--0--0--0--0--0--0--0--0---|
|--6--6--6--6--6--6--6--6---|
|--4--4--4--4--4--4--4--4---|
|---------------------------|
|---------------------------|

Has someone taken your faith?
|--0--0--0--0--0--0--0--0---|
|--0--0--0--0--0--0--0--0---|
|--9--9--9--9--9--9--9--9---|
|--11-11-11-11-11-11-11-11--|
|---------------------------|
|---------------------------|

Its real, the pain you feel
|--0--0--0--0--0--0--0--0---|
|--0--0--0--0--0--0--0--0---|
|--8--8--8--8--8--8--8--8---|
|--9--9--9--9--9--9--9--9---|
|---------------------------|
|---------------------------|

You trust you must confess
|--0--0--0--0--0--0--0--0---|
|--0--0--0--0--0--0--0--0---|
|--9--9--9--9--9--9--9--9---|
|--7--7--7--7--7--7--7--7---|
|---------------------------|
|---------------------------|

|--0--0--0--0--0--0--0--0---|
|--0--0--0--0--0--0--0--0---|
|--6--6--6--6--6--6--6--6---|
|--4--4--4--4--4--4--4--4---|
|---------------------------|
|---------------------------|

Is someone getting the best
|--0--0--0--0--0--0--0--0---|
|--0--0--0--0--0--0--0--0---|
|--9--9--9--9--9--9--9--9---|
|--11-11-11-11-11-11-11-11--|
|---------------------------|
|---------------------------|

the best, the best,
|--0--0--0--0--0--0--0--0---|
|--0--0--0--0--0--0--0--0---|
|--8--8--8--8--8--8--8--8---|
|--9--9--9--9--9--9--9--9---|
|---------------------------|
|---------------------------|

the best of you?
|--0--0--0--0--0--0--0--0---|
|--0--0--0--0--0--0--0--0---|
|--9--9--9--9--9--9--9--9---|
|--7--7--7--7--7--7--7--7---|
|---------------------------|
|---------------------------|

|--0--0--0--0--0--0--0--0---|
|--0--0--0--0--0--0--0--0---|
|--6--6--6--6--6--6--6--6---|
|--4--4--4--4--4--4--4--4---|
|---------------------------|
|---------------------------|

Oh 
|--0--0--0--0--0--0--0--0--0--0--0--0--0--0--0--0---|
|--0--0--0--0--0--0--0--0--0--0--0--0--0--0--0--0---|
|--9--9--9--9--9--9--9--9--9--9--9--9--9--9--9--9---|
|--11-11-11-11-11-11-11-11-11-11-11-11-11-11-11-11--|
|---------------------------------------------------|
|---------------------------------------------------|

|--0--0--0--0--0--0--0--0--0--0--0--0--0--0--0--0---|
|--0--0--0--0--0--0--0--0--0--0--0--0--0--0--0--0---|
|--9--9--9--9--9--9--9--9--9--9--9--9--9--9--9--9---|
|--11-11-11-11-11-11-11-11-11-11-11-11-11-11-11-11--|
|---------------------------------------------------|
|---------------------------------------------------|

|--0--0--0--0--0--0--0--0--0--0--0--0--0--0--0--0---|
|--0--0--0--0--0--0--0--0--0--0--0--0--0--0--0--0---|
|--9--9--9--9--9--9--9--9--9--9--9--9--9--9--9--9---|
|--11-11-11-11-11-11-11-11-11-11-11-11-11-11-11-11--|
|---------------------------------------------------|
|---------------------------------------------------|

|--0--0--0--0--0--0--0--0--0--0--0--0--0--0--0--0---|
|--0--0--0--0--0--0--0--0--0--0--0--0--0--0--0--0---|
|--9--9--9--9--9--9--9--9--9--9--9--9--9--9--9--9---|
|--11-11-11-11-11-11-11-11-11-11-11-11-11-11-11-11--|
|---------------------------------------------------|
|---------------------------------------------------|

|--0--0--0--0--0--0--0--0--0--0--0--0--0--0--0--0---|
|--0--0--0--0--0--0--0--0--0--0--0--0--0--0--0--0---|
|--9--9--9--9--9--9--9--9--9--9--9--9--9--9--9--9---|
|--11-11-11-11-11-11-11-11-11-11-11-11-11-11-11-11--|
|---------------------------------------------------|
|---------------------------------------------------|

|--0--0--0--0--0--0--0--0--0--0--0--0--0--0--0--0---|
|--0--0--0--0--0--0--0--0--0--0--0--0--0--0--0--0---|
|--9--9--9--9--9--9--9--9--9--9--9--9--9--9--9--9---|
|--11-11-11-11-11-11-11-11-11-11-11-11-11-11-11-11--|
|---------------------------------------------------|
|---------------------------------------------------|

The end

 - Excalibur
      
 Questions, complaints, compliments, critiques, or what not email excalibur627@hotmail.com
Comments