Foo Fighters - Baker Street Chords & Tabs

 

Baker Street Chords & Tabs

Foo Fighters Chords & Tabs

Version: 5 Type: Tab 0 ratings
1 star 2 stars 3 stars 4 stars 5 stars
comments

Baker Street Tab

   
#----------------------------------PLEASE NOTE--------------------------------#
#This file is the author's own work and represents their interpretation of the#
#song. You may only use this file for private study, scholarship, or research.#
#-----------------------------------------------------------------------------#
Tabbed by: Dan Marston
Email:drmarsman@hotmail.com

To get the feel of the strumming and solos etc.. you should listen
to the song, I know it was released as a B-side to the My Hero single
in the UK, I don't know about releases in America though, it is also widely available
on the internet.(kazaa, imesh etc.)




Chords used:
   EADGBe
Dm xx0231  
Am x02210  
Em 022000
G  355xxx
A  577xxx
C  x355xx
D  x577xx

Key:
 hb   - Half-Bend ( bend note 1 semi tone )
 fb   - Full-Bend ( bend note 2 semi-tones )
 sfb  - Slow full bend
 x    - mute string
 h    - Hammer-on
 p    - Pull-off
 /    - Slide 
 ~~~  - vibrato
 (-)  - Ghost note, don't necessarily play it ( where '-' is fret number shown )
 


Intro:

G-|-4b~-----2~-0--------------2-|
D-|--------------3/5--1-3-0-0---|

D-|---9-------8---5-|
A-|-7-------6---3---|

G-|-4b~----2-0------------|
D-|------------3/5--1-3-0-|

Riff 1:
(with gtr2 chord pattern)
[ Tab from: http://www.guitartabs.cc/tabs/f/foo_fighters/baker_street_tab_ver_5.html ]
                  D
e-|----13-12-10---10h12p10-|----13-12-10------------|----13-12-10-------------|                     \
B-|-10---------13h---------|-10---------13--10------|-10---------13~~-13-10---|                     |
                  G                                                                                 |
e-|----13-12-10---10h12p10---------|                                                                |
B-|-10---------13--------------8-6-|                                                                |
                                                                                                    |
gtr 2:                                                                                              |
                                                                                                    |
e-|-------------------|--------------------|-------------------|---------------|------------------| |
B-|-------------------|--------------------|-------------------|---------------|------------------| |
G-|-------------------|-7-7-x7x7-7---------|-7-7-x7x7-7--------|-5-5-x5x-------|------------------| |- 2x
D-|-------------------|-7-7-x7x7-7---------|-7-7-x7x7-7--------|-5-5-x5x7-7x7x-|-(7)/5-5x5x5-5----| |
A-|-----------3~~~~~~-|-5-5-x5x5-5--3~~~~--|-5-5-x5x5-5--3~~~~-|-3-3-x3x7-7x7x-|-(7)/5-5x5x5-5--3~| |
E-|-------------------|--------------------|-------------------|-------x5-5x5x-|-(5)/3-3x3x3-3----| |
                                                                                                    |
  |--------------------|-------------------|---------------|----------------------|                 |
  |--------------------|-------------------|---------------|----------------------|                 |
  |/7-7-x7x7-7---------|-7-7-x7x7-7--------|-5-5-x5x-------|----------------------|                 |
  |/7-7-x7x7-7---------|-7-7-x7x7-7--------|-5-5-x5x7-7777-|-(7)/555555555555-----|                 |
  |/5-5-x5x5-5--3~~~~--|-5-5-x5x5-5--3~~~~-|-3-3-x3x7-7777-|-(7)/555555555555-----|                 |
  |--------------------|-------------------|-------x5-5557-|-(5)/333333333333-----|                 /


A
Winding your way down on Baker Street
A
Light in your head, and dead on your feet
     Em                     G
Well another crazy day, you drink the night away
    D
And forget about everything

A
This city's dance makes you feel so cold, it's got
A
So many people but its got no soul
        Em                   G
And its taken you so long to find out you were wrong
         D
When you thought it held everything.


Dm                            Am
You used to think that it was so easy
Dm                          Am
You used to say that it was so easy
    C              G             D
But you're trying, you're trying now

Dm                          Am
Another year and then you'd be happy
Dm                                Am
Just one more year and then you'd be happy
    C              G             A    G
But you're crying, you're crying now


--Repeat Solo with gtr2 chord pattern


A
Way down the street there's a light in his place
A
You open the door, he's got that look on his face
       Em                               G
And he asks you where you've been, you tell him who you've seen
        D
And you talk about everything


A
He's got this dream about buying some land
A
He's gonna give up the crack and the one night stands
    Em                             G
And then he'll settle down, it's a quiet little town
    D
And forget about everything


Dm                        Am
But you know he'll always keep moving
Dm                        Am
You know he's never gonna stop moving
C                   G                D
Cause he's rolling, he's the rolling stone

Dm                          Am
And when you wake up it's a new morning
Dm                        Am
The sun is shining it's a new morning
C                 G            A     D
And you're going, you're going home


--Repeat Riff 1 and gtr2 chord pattern--

--Repeat intro--


Solo:

(Solo 1's chords strummed whilst playing this)

e-|-20-20-20-20fb-|-17-17-15-13-17p15p13---------|
B-|---------------|----------------------15~~~~--|

                        |  
e-|----------------13-15-15sfb-(start to slowly bring the bend down)-|
B-|-13fb-13fb-(13)15-------------------------------------------------|

e-|--15fb 15fb-15fb-15fb-15fb-15fb-15fb-15fb-15fb-15fb~~~~~-|
B-|---------------------------------------------------------|

e-|-20-20-20-20fb---|------------------------------------------------|
B-|-----------------|---15~~--(15)-13--------------------------------|
G-|-----------------|---------------14--12-14--12--------------------|
D-|-----------------|-----------------------------15--12/10/12~~~----|

e-|--15sfb 15sfb-15fb-15fb-15fb-15fb-15fb-15fb-15fb-15fb-15fb-15fb~~~~~------|
B-|--------------------------------------------------------------------------|

then just play gtr2 chord patter until fade out

There Ya Go!
Comments