Foo Fighters - Baker Street Chords & Tabs

 

Baker Street Chords & Tabs

Foo Fighters Chords & Tabs

Version: 2 Type: Tab 0 ratings
1 star 2 stars 3 stars 4 stars 5 stars
comments

Baker Street Tab

   
#----------------------------------PLEASE NOTE--------------------------------#
#This file is the author's own work and represents their interpretation of the#
#song. You may only use this file for private study, scholarship, or research.#
#-----------------------------------------------------------------------------#

Date: Wed, 18 Mar 98 19:47:20 GMT
From: Giles Taylor 
To: guitar@olga.net
Subject: Guitar Tab

   Artist: Foo Fighters
     Song: Baker Street
     From: B-side of My Hero single (in UK)
     
Tabbed by: Giles Taylor
    Email: gmail@hotmail.com

To get the feel of the strumming and solos etc.. you should listen
to the song, I know it was released as a B-side to the My Hero single
in the UK, I don't know about releases in America though.

All chords are power chords, except during the verse, and the minor
chords. You can also try picking the Dm and Am chords at the beginning of
the chorus if you have two guitars, for a nice effect.
The chorus can also be played with Dm7 and Am7, but I don't think it
sounds right like that.

Chords used:
   EADGBe
Dm xx0231  or Dm7 : xx0211
Am x02210  or Am7 : x02010
Em 022000
G  355xxx
A  577xxx
C  x355xxx
D  x577xx
[ Tab from: http://www.guitartabs.cc/tabs/f/foo_fighters/baker_street_tab_ver_2.html ]
Key:
10b   - Bend note
13h   - Hammer-on
12p   - Pull-off
13/10 - Slide to next note
10~~~ - Hold note
(7)   - Ghost note, don't necessarily play it
(x12) - Play 12 times
Intro:

G-|-4b-4b-2-0---3-0---------
D-|-----------3-----1-3-0-0-

D-|---9-------8---5-
A-|-7---(7)-6---3---

G-|-4b-4b-2-0---3-0-------
D-|-----------3-----1-3-0-

Solo 1:
(with power chords - should be strummed by guitar 2 during solo)

                  D
e-|----13-12-10---10h12p10-
B-|-10---------13h---------

                  D
e-|----13-12-10------------
B-|-10---------13h-10------

                C      A
e-|----13-12-10------------
B-|-10---------13h-13-10---

                  G
e-|----13-12-10---10h12p10------
B-|-10---------13h----------8-6-

--Repeat Intro--

--Repeat Solo 1--

Final Solo:
(Solo 1's chords strummed whilst playing this)

e-|-20-20-20-20\22-17-17-15-13-17b-15-13\10--
B-|------------------------------------------

                        |  (x10)
e-|-10b~~~~~~~-13-15-17-|--17b- 
B-|---------------------|------

e-|-20-20-20-20\22-10b-10-8-----------------------
B-|-------------------------10-8--10-8------------
G-|------------------------------------10-7-------
D-|-----------------------------------------10\12-

          (x12)
e-|-17-|--17b

Tabbed by Giles Taylor (gmail@hotmail.com)
Comments