Foo Fighters - Another Round Chords & Tabs

 

Another Round Chords & Tabs

Foo Fighters Chords & Tabs

Version: 2 Type: Tab 0 ratings
1 star 2 stars 3 stars 4 stars 5 stars
comments

Another Round Tab

   
Another Round Harmonica Solo Tab - by dantheman7_8

Artist: Foo Fighters
Song: Another Round
Album: 2005 - In Your Honor
Instrument: Guitar
Tuning: eBGDAE
Tabbed by: dantheman7_8   ---- Comments or requests to                       -           
                dantheman7_8@hotmail.com

(This is the harmonica solo transposed to guitar. Another guitar can accompany it with 
same chords as the verse.)

Verse:
     G   Dm  Am  C     D
e||--3---1---0---3--|--2--||
B||--3---3---1---1--|--3--||
G||--0---2---2---0--|--2--||
D||--0---0---2---2--|--0--||
A||--2-------0---3--|-----||
E||--3--------------|-----||
[ Tab from: http://www.guitartabs.cc/tabs/f/foo_fighters/another_round_tab_ver_2.html ]
Harmonica Solo:
e||-0s10-12-10----1215-13-12-10-8--4b3---10p810--15-13-12-10-8-10-8-||
B||-------------10---------------------------------------------------||
G||------------------------------------------------------------------||
D||------------------------------------------------------------------||
A||------------------------------------------------------------------||
E||------------------------------------------------------------------||

e||-15-13-12-10-8-10-8-10-12-13-12-10-7b3-3-3-10-12-10-12-10-12-10-||
B||------------------------------------------------------------------||
G||------------------------------------------------------------------||
D||------------------------------------------------------------------||
A||------------------------------------------------------------------||
E||------------------------------------------------------------------||

e||--757b310-2-3-5-7-||
B||---------------------||
G||---------------------||
D||---------------------||
A||---------------------||
E||---------------------||
Comments