Foo Fighters - All My Life Chords & Tabs

 

All My Life Chords & Tabs

Foo Fighters Chords & Tabs

Version: 8 Type: Tab 1 rating
1 star 2 stars 3 stars 4 stars 5 stars
comments

All My Life Tab

   
#----------------------------------PLEASE NOTE---------------------------------#
#This file is the author's own work and represents their interpretation of the #
#song. You may only use this file for private study, scholarship, or research. #
#------------------------------------------------------------------------------#

******************************
* FOO FIGHTERS - ALL MY LIFE *
******************************

AFINACIÓN NORMAL (E-A-D-G-B-e)

HECHO POR: JUAN DE CAMILLIS

INTRO: Guitarra 1 (Grohl):
e|-------------------|
B|-------------------|
G|-------------------|
D|----------------4*-| x23 (luego el harmonico)   *HARMONICO NATURAL
A|-55-555-55-555--4*-| 
E|-33-333-33-333-----|
   PM-----------|
  
"All my life i've searching...."
___________________________________________________________________
PRE VERSO
Guitarras 1 y 2:
e|------------------------------------------------------------|
B|------------------------------------------------------------|
G|-3-3-3-3-3-3-3-3-3-3-3--5-5-5--3-3-3-3-3-3-3-3-3-3-3--6-6-6-|
D|-0-0-0-0-0-0-0-0-0-0-0--0-0-0--0-0-0-0-0-0-0-0-0-0-0--0-0-0-|
A|-2-2-2-2-2-2-2-2-2-2-2--4-4-4--2-2-2-2-2-2-2-2-2-2-2--5-5-5-|
E|-3-3-3-3-3-3-3-3-3-3-3--5-5-5--3-3-3-3-3-3-3-3-3-3-3--6-6-6-|

e|------------------------------------------------------------|
B|------------------------------------------------------------|
G|-3-3-3-3-3-3-3-3-3-3-3--5-5-5--3-3-3-3-3-3-3-3-3-3-3--66666-|
D|-0-0-0-0-0-0-0-0-0-0-0--0-0-0--0-0-0-0-0-0-0-0-0-0-0--00000-|
A|-2-2-2-2-2-2-2-2-2-2-2--4-4-4--2-2-2-2-2-2-2-2-2-2-2--55555-|
E|-3-3-3-3-3-3-3-3-3-3-3--5-5-5--3-3-3-3-3-3-3-3-3-3-3--66666-|
                                                        (Rasguido rápido) 
____________________________________________________________________
VERSO 1:

Guitarra 2 (Todo el verso):
e|------------------------------------------------------------|
B|------------------------------------------------------------|
G|---3------3-----3-----3-5-5-5---3------3-----3-----3--6-6-6-|
D|------------------------0-0-0-------------------------0-0-0-| X4
A|-2----2-2---2-----2-2---4-4-4-2----2-2---2-----2-2----5-5-5-|
E|-3----3-3---3-----3-3---5-5-5-3----3-3---3-----3-3----6-6-6-|


Guitarra 1 (Parte I):
e|------------------------------------------------------------|
B|------------------------------------------------------------|
G|------------------------5-5-5-------------------------6-6-6-|
D|------------------------0-0-0-------------------------0-0-0-| X3
A|------------------------4-4-4-------------------------5-5-5-|
E|------------------------5-5-5-------------------------6-6-6-|

 "Calm down don't you resist"

Guitarra 1 (Parte II):
e|--------------------------------------------------------------|
B|--------------------------------------------------------------|
G|------------------------5-5-5-------------------------66666---|
D|------------------------0-0-0-------------------------00000---|
A|------------------------4-4-4-------------------------55555---|
E|------------------------5-5-5-------------------------66666---|
 
  "And if I give it a twist"  
  
Guitarra 1 (Parte III):
e|------------------------------------------------------------|
B|------------------------------------------------------------|
G|------------------------5-5-5-------------------------6-6-6-|
D|------------------------0-0-0-------------------------0-0-0-| X3
A|------------------------4-4-4-------------------------5-5-5-|
E|------------------------5-5-5-------------------------6-6-6-|
  
  "Will I find"

Guitarra 1 (Parte IV):
e|------------------------------------------------------------|
B|------------------------------------------------------------|
G|------------------------5-5-5-------------------------------|
D|------------------------0-0-0-------------------------------|
A|------------------------4-4-4-------------------------------|
E|------------------------5-5-5-------------------------------|
   
   "Another reason to bleed"
____________________________________________________________________
PRE-ESTRIBILLO (G1)

e|----------------------|
B|----------------------|
G|----------------------|
D|----------------------|
A|--55---555--55---555--|
E|--33---333--33---333--|
    PM----------------|

"...One by one hidden up my sleeve..." 
______________________________________________________________________
ESTRIBILLO (x2) GUITARRAS 1 Y 2

e|-x-x-x-x-x-x-x-x-x-x-x-x-x-x--x-x-x-x-x-x-x-x-x-x-x-x---|
B|-4-4-4-4-4-4-4-4-4-4-4-4-4-4--3-3-3-3-3-3-3-3-3-3-3-3---|
G|--------------------------------------------------------|
D|-5-5-5-5-5-5-5-5-5-5-5-5-5-5--5-5-5-5-5-5-5-5-5-5-5-5---|
A|-6-6-6-6-6-6-6-6-6-6-6-6-6-6--5-5-5-5-5-5-5-5-5-5-5-5---|
E|-x-x-x-x-x-x-x-x-x-x-x-x-x-x--x-x-x-x-x-x-x-x-x-x-x-x---|
  
   "Hey don't let it go to waste"

e|-0-0-0-0-0-0---------------------------------|
B|-1-1-1-1-1-1---------------------------------|
G|-0-0-0-0-0-0---------------------------------|
D|-2-2-2-2-2-2--3-3-3-3-3-3--8-8-8-8-8-8-------|
A|-3-3-3-3-3-3--3-3-3-3-3-3--8-8-8-8-8-8-------|
E|--------------1-1-1-1-1-1--6-6-6-6-6-6-------|
   
   "weeeeight"
________________________________________________________________________
PRE VERSO

Guitarras 1 y 2:
e|------------------------------------------------------------|
B|------------------------------------------------------------|
G|-3-3-3-3-3-3-3-3-3-3-3--5-5-5--3-3-3-3-3-3-3-3-3-3-3--6-6-6-|
D|-0-0-0-0-0-0-0-0-0-0-0--0-0-0--0-0-0-0-0-0-0-0-0-0-0--0-0-0-|
A|-2-2-2-2-2-2-2-2-2-2-2--4-4-4--2-2-2-2-2-2-2-2-2-2-2--5-5-5-|
E|-3-3-3-3-3-3-3-3-3-3-3--5-5-5--3-3-3-3-3-3-3-3-3-3-3--6-6-6-|

e|------------------------------------------------------------|
B|------------------------------------------------------------|
G|-3-3-3-3-3-3-3-3-3-3-3--5-5-5--3-3-3-3-3-3-3-3-3-3-3--66666-|
D|-0-0-0-0-0-0-0-0-0-0-0--0-0-0--0-0-0-0-0-0-0-0-0-0-0--00000-|
A|-2-2-2-2-2-2-2-2-2-2-2--4-4-4--2-2-2-2-2-2-2-2-2-2-2--55555-|
E|-3-3-3-3-3-3-3-3-3-3-3--5-5-5--3-3-3-3-3-3-3-3-3-3-3--66666-|
                                                       
________________________________________________________________________
VERSO 2 

Guitarra 2 (Todo el verso):
e|------------------------------------------------------------|
B|------------------------------------------------------------|
G|---3------3-----3-----3-5-5-5---3------3-----3-----3--6-6-6-|
D|------------------------0-0-0-------------------------0-0-0-| X4
A|-2----2-2---2-----2-2---4-4-4-2----2-2---2-----2-2----5-5-5-|
E|-3----3-3---3-----3-3---5-5-5-3----3-3---3-----3-3----6-6-6-|

Guitarra 1 (Parte I):
e|------------------------------------------------------------|
B|------------------------------------------------------------|
G|------------------------5-5-5-------------------------6-6-6-|
D|------------------------0-0-0-------------------------0-0-0-| X3
A|------------------------4-4-4-------------------------5-5-5-|
E|------------------------5-5-5-------------------------6-6-6-|

 "Will I find a believer"
[ Tab from: http://www.guitartabs.cc/tabs/f/foo_fighters/all_my_life_tab_ver_8.html ]
Guitarra 1 (Parte II):
e|--------------------------------------------------------------|
B|--------------------------------------------------------------|
G|------------------------5-5-5-------------------------66666---|
D|------------------------0-0-0-------------------------00000---|
A|------------------------4-4-4-------------------------55555---|
E|------------------------5-5-5-------------------------66666---|
 
  "Another one to deceive"  
  
Guitarra 1 (Parte III):
e|------------------------------------------------------------|
B|------------------------------------------------------------|
G|------------------------5-5-5-------------------------6-6-6-|
D|------------------------0-0-0-------------------------0-0-0-| X3
A|------------------------4-4-4-------------------------5-5-5-|
E|------------------------5-5-5-------------------------6-6-6-|
  
  "If I get any closer"


Guitarra 1 (Parte IV):
e|------------------------------------------------------------|
B|------------------------------------------------------------|
G|------------------------5-5-5-------------------------------|
D|------------------------0-0-0-------------------------------|
A|------------------------4-4-4-------------------------------|
E|------------------------5-5-5-------------------------------|
   
   "And if you let me inside"
____________________________________________________________________
PRE-ESTRIBILLO (G1):

e|----------------------|
B|----------------------|
G|----------------------|
D|----------------------|
A|--55---555--55---555--|
E|--33---333--33---333--|

"...On and on..." 
____________________________________________________________________
ESTRIBILLO (x2) GUITARRAS 1 Y 2

e|-x-x-x-x-x-x-x-x-x-x-x-x-x-x--x-x-x-x-x-x-x-x-x-x-x-x---|
B|-4-4-4-4-4-4-4-4-4-4-4-4-4-4--3-3-3-3-3-3-3-3-3-3-3-3---|
G|--------------------------------------------------------|
D|-5-5-5-5-5-5-5-5-5-5-5-5-5-5--5-5-5-5-5-5-5-5-5-5-5-5---|
A|-6-6-6-6-6-6-6-6-6-6-6-6-6-6--5-5-5-5-5-5-5-5-5-5-5-5---|
E|-x-x-x-x-x-x-x-x-x-x-x-x-x-x--x-x-x-x-x-x-x-x-x-x-x-x---|
  
  "Hey don't let it go to waste"

e|-0-0-0-0-0-0---------------------------------|
B|-1-1-1-1-1-1---------------------------------|
G|-0-0-0-0-0-0---------------------------------|
D|-2-2-2-2-2-2--3-3-3-3-3-3--8-8-8-8-8-8-------|
A|-3-3-3-3-3-3--3-3-3-3-3-3--8-8-8-8-8-8-------|
E|--------------1-1-1-1-1-1--6-6-6-6-6-6-------|
   
  "weeeeight   keep-ing me down..."

________________________________________________________________________
PRE VERSO

Guitarras 1 y 2:
e|------------------------------------------------------------|
B|------------------------------------------------------------|
G|-3-3-3-3-3-3-3-3-3-3-3--5-5-5--3-3-3-3-3-3-3-3-3-3-3--6-6-6-|
D|-0-0-0-0-0-0-0-0-0-0-0--0-0-0--0-0-0-0-0-0-0-0-0-0-0--0-0-0-|
A|-2-2-2-2-2-2-2-2-2-2-2--4-4-4--2-2-2-2-2-2-2-2-2-2-2--5-5-5-|
E|-3-3-3-3-3-3-3-3-3-3-3--5-5-5--3-3-3-3-3-3-3-3-3-3-3--6-6-6-|

e|------------------------------------------------------------|
B|------------------------------------------------------------|
G|-3-3-3-3-3-3-3-3-3-3-3--5-5-5--3-3-3-3-3-3-3-3-3-3-3--66666-|
D|-0-0-0-0-0-0-0-0-0-0-0--0-0-0--0-0-0-0-0-0-0-0-0-0-0--00000-|
A|-2-2-2-2-2-2-2-2-2-2-2--4-4-4--2-2-2-2-2-2-2-2-2-2-2--55555-|
E|-3-3-3-3-3-3-3-3-3-3-3--5-5-5--3-3-3-3-3-3-3-3-3-3-3--66666-|

________________________________________________________________________
INTRO OTRA VEZ
Guitarra 1 (Grohl):
e|------------------------|
B|------------------------|
G|------------------------|
D|------------------------| 
A|-55----555----55--------| 
E|-33----333----33--------|
   PM-------------|
________________________________________________________________________
PUENTE:  

Guitarra 1 (Grohl):
e|------------------------|
B|------------------------|
G|------------------------|
D|------------------------| 
A|-55----555----55--------| 
E|-33----333----33--------|
   PM-------------|

Guitarra 2 (Shifflet):             
e|---------------------------|                     
B|---------------------------|                       
G|---------------------------|         
D|---------------------------|      
A|---------------------------|                      
E|----3*-----3*-----3*-----3*|                      
  
  "...All my life i've searching..."                                  


________________________________________________________________________

Guitarra 1 (Grohl):
e|------------------------|
B|------------------------|
G|------------------------|
D|------------------------| 
A|-55----555----55--------| 
E|-33----333----33--------|
   PM-------------|

Guitarra 2 (Shifflet):
e|---------------------------|                      
B|---------------------------|                      
G|----5//////\\7----------|                      
D|---------------------------|    
A|---------------------------|         
E|---------------------------|         

  "...Then I'm done done"
________________________________________________________________________
                                    
INTRO CON DISTORCIÓN FUERTE - (Guitarras 1 y 2):

e|-----------------|
B|-----------------|
G|-----------------| X16
D|-----------------|
A|-55----555--(5)--|
E|-33----333--(3)--|
"...Done, Done"
________________________________________________________________________
ESTRIBILLO (x2) GUITARRAS 1 Y 2

e|-x-x-x-x-x-x-x-x-x-x-x-x-x-x--x-x-x-x-x-x-x-x-x-x-x-x---|
B|-4-4-4-4-4-4-4-4-4-4-4-4-4-4--3-3-3-3-3-3-3-3-3-3-3-3---|
G|--------------------------------------------------------|
D|-5-5-5-5-5-5-5-5-5-5-5-5-5-5--5-5-5-5-5-5-5-5-5-5-5-5---|
A|-6-6-6-6-6-6-6-6-6-6-6-6-6-6--5-5-5-5-5-5-5-5-5-5-5-5---|
E|-x-x-x-x-x-x-x-x-x-x-x-x-x-x--x-x-x-x-x-x-x-x-x-x-x-x---|
  
   "Hey don't let it go to waste"

e|-0-0-0-0-0-0---------------------------------|
B|-1-1-1-1-1-1---------------------------------|
G|-0-0-0-0-0-0---------------------------------|
D|-2-2-2-2-2-2--3-3-3-3-3-3--8-8-8-8-8-8-------|
A|-3-3-3-3-3-3--3-3-3-3-3-3--8-8-8-8-8-8-------|
E|--------------1-1-1-1-1-1--6-6-6-6-6-6-------|
   
   "weeeeight   keep-ing me down..."
________________________________________________________________________
OUTRO: INTRO CON DISTORCIÓN FUERTE - (Guitarras 1 y 2):

Guitarra 1 (Grohl):
e|-----------------|
B|-----------------|
G|-----------------| X16
D|-----------------|
A|-55----555--(5)--|
E|-33----333--(3)--|

"...Done, Done"

Guitarra 2 (Shifflet):
e|-66666666666666/8-6/8|-6666666666666/9-6/9|      |-----|
B|---------------------|--------------------|      |-----|
G|---------------------|--------------------| x2   |-----|
D|---------------------|--------------------|      |-----|
A|---------------------|--------------------|      |-5-5-|
E|---------------------|--------------------|      |-3-3-|
                                                    Nota Final G 1 y 2.
________________________________________________________________________


NOTA: Los tiempos no son exactos, pero estoy seguro de que esas son las notas y arcordes y que
asi es el orden, ecucha el tema para saber bien los tiempos. Disculpá si hay algún error.

_______________________________________________________________________
JUAN DE CAMILLIS
e-mail:jadecam_akd@hotmail.com
¡¡Aguante ARGENTINA y LA ACADÉ Carajo!!
Comments