Foo Fighters - All My Life Chords & Tabs

 

All My Life Chords & Tabs

Foo Fighters Chords & Tabs

Version: 7 Type: Tab 1 rating
1 star 2 stars 3 stars 4 stars 5 stars
comments

All My Life Tab

   
#----------------------------------PLEASE NOTE---------------------------------#
#This file is the author's own work and represents their interpretation of the #
#song. You may only use this file for private study, scholarship, or research. #
#------------------------------------------------------------------------------# 

Foo Fighters
                                    "All My Life"

Artist - Foo Fighters
Song - All My Life
Album - One By One 
Transcribed By - Craig Wilson 


Tunning - Standard

[G1] Guitar 1 - E A D G B E 
[G2] Guitar 2 - E A D G B E
[B]  Bass     - E A D G



Intro - (o.00 - 0.27)

  G1 very cleanh
e|--------------------|                                                                   
B|--------------------|                                                                      
G|--------------------|                                                                   
D|-5--5-5-5--5-5-5----|                                                                       
A|-5--5-5-5--5-5-5----|                                                                     
E|-3--3-3-3--3-3-3----|                                                                  
   ...............      
                       

(0.27 - 0.28)
G2 Distoryed

Natural G Harmonic *

e|--2*--|  # Note #
B|--2*--|  
G|--0*--|  G Chord, Fingers Barley Tounching String, Strings Not Touching Fret Board 
D|--0*--|
A|--2*--|
E|--3*--|
  

Main Riff (0.28 - 0.40)

  G1 & G2 Distorted
e|-2-2-2-2-2--2-2-2-2-2-------2-2-2-2-2--2-2-2-2-2---------|
B|-2-2-2-2-2--2-2-2-2-2-------2-2-2-2-2--2-2-2-2-2---------|
G|-0-0-0-0-0--0-0-0-0-0-------0-0-0-0-0--0-0-0-0-0--6-6----| X2
D|-0-0-0-0-0--0-0-0-0-0--8-8--0-0-0-0-0--0-0-0-0-0--6-6----|G1 PLAYS G CHORD
A|-2-2-2-2-2--2-2-2-2-2--8-8--2-2-2-2-2--2-2-2-2-2--4-4----|G2 PLAYS G BARRE CHORD
E|-3-3-3-3-3--3-3-3-3-3--6-6--3-3-3-3-3--3-3-3-3-3--4-4----|                                                                                      
  
  B                             
G|---------------------------------------------------------|  
D|---------------------------------------------------------|  
A|--------------------------------------------------4-4----|   
E|-3-3-3-3-3--3-3-3-3-3--6-6--3-3-3-3-3--3-3-3-3-3---------|
                                         
Verse 1 (0.40 - 1.02)
[ Tab from: http://www.guitartabs.cc/tabs/f/foo_fighters/all_my_life_tab_ver_7.html ]
  G2 fast Triplets       Distorted
e|--------------------------------------------------------|
B|--------------------------------------------------------|
G|--3-------3--3------3--5-5---3------3--3------3--6-6----|
D|-----------------------x-x-----------------------x-x----|
A|-----------------------3-3-----------------------4-4----|
E|-3--3-3-3--3--3-3-3---------3--3-3-3--3--3-3-3----------|

  G1 Plays Fill At The End Of Each Verse Line 
e|------|--------| Same For Bass
B|------|--------|
G|-5-5--|-6-6----| G|------|--------|
D|-x-x--|-x-x----| D|------|--------|
A|-3-3--|-4-4----| A|-3-3--|-4-4----|
E|------|--------| E|------|--------|



Chorus (1.06 - 1.25)
 G1 & G2
  D#   G   C   F   A
e|-X-|-X-|-0-|-1-|-6-|
B|-4-|-3-|-1-|-1-|-6-|     D#   G   C   F   A    
G|-0-|-0-|-0-|-2-|-6-|   G|---|---|---|---|---|
D|-5-|-5-|-2-|-3-|-8-|   D|---|---|---|---|---|
A|-6-|-5-|-3-|-3-|-8-|   A|-6-|-5-|-3-|---|---|
E|-X-|-X-|-0-|-1-|-6-|   E|---|---|---|-1-|-6-|



Chorus (1.57 - 2.16)

D#
Hey don't 
G#
I love it 
C      F              A
Weight keeping me down [2x]

Main Riff x 1 (2.17 - 2.23)

Intro Riff (2.23 - 2.29) ALONE

Intro (2.29 - 3.13)

  G1
e|--------------------|                                                                  
B|--------------------|                                                                       
G|--------------------|                                                                     
D|-5--5-5-5--5-5-5----|                                                                       
A|-5--5-5-5--5-5-5----|                                                                       
E|-3--3-3-3--3-3-3----|                                                                        
   ...............      
                       
                     
                                                      

 G2                                             G
e|-------|                                   e|-3~-|
B|-------|                                   B|-3~-|
G|-------|PLAYS UNTIL "end of the rope" THEN G|-0~-|
D|-5X----|                                   D|-0~-|
A|-3X----|                                   A|-2~-|
E|-------|                                   E|-3~-|


FILL (3.13-3.14)
Natural G Harmonic *

e|--2*--|  # Note #
B|--2*--|  
G|--0*--|  G Chord, Fingers Barley Tounching String, Strings Not Touching Fret Board 
D|--0*--|
A|--2*--|
E|--3*--|

BRIDGE (3.14 - 3.37)


e|-----------------| (3.26-3.37)                                                                     
B|-----------------|  Shouting                                                                     
G|-----------------|  DONE DONE ONTO THE NEXT ONE                                                                   
D|-5-5-5--5-5-5----|  DONE AM DONE AND AM ONTO THE NEXT ONE                                                                     
A|-5-5-5--5-5-5----                                                                   
E|-3-3-3--3-3-3----| 

Chorus (3.37 - 3.57)

Comments