Foo Fighters - All My Life Chords & Tabs

 

All My Life Chords & Tabs

Foo Fighters Chords & Tabs

Version: 2 Type: Tab 0 ratings
1 star 2 stars 3 stars 4 stars 5 stars
comments

All My Life Tab

   
Band - Foo Fighters
Song - All My Life
Tuning - standard

*this is my first tab so it might not be good but here goes*


Introduction

palm muted
E|---------------------------------|
B|---------------------------------|
G|---------------------------------|
D|--5-5--5--5-5--5--5-5--5--5-5----|
A|--5-5--5--5-5--5--5-5--5--5-5----|
E|--3-3--3--3-3--3--3-3--3--3-3----|

   --------------pm------------


E|----------------------------------------------------------|
B|----------------------------------------------------------|
G|-----------------------3--3------------------------6--6---|
D|-5-5-3-5-5--5-5-5-3-5--3--3--5-5-3-5-5--5-5-5-3-5--6--6---|
A|-5-5-3-5-5--5-5-5-3-5--1--1--5-5-3-5-5--5-5-5-3-5--4--4---|
E|-3-3-1-3-3--3-3-3-1-3--------3-3-1-3-3--3-3-3-1-3---------|


Verse
[ Tab from: http://www.guitartabs.cc/tabs/f/foo_fighters/all_my_life_tab_ver_2.html ]
E|------------------------------------------------|
B|------------------------------------------------|
G|------------------3--3-------------------6--6---|
D|-5-5-5-5-5-5-5-5--3--3--5-5-5-5-5-5-5-5--6--6---|
A|-5-5-5-5-5-5-5-5--1--1--5-5-5-5-5-5-5-5--4--4---|
E|-3-3-3-3-3-3-3-3--------3-3-3-3-3-3-3-3---------|
  ------pm-------         -------pm------

Chorus

E|-6-6-6-6-6-6-6-6-6-6-6-6-3-3-3-3-3-3-3-3-3-3-3-3-
B|-6-6-6-6-6-6-6-6-6-6-6-6-3-3-3-3-3-3-3-3-3-3-3-3-
G|-8-8-8-8-8-8-8-8-8-8-8-8-4-4-4-4-4-4-4-4-4-4-4-4-
D|-8-8-8-8-8-8-8-8-8-8-8-8-5-5-5-5-5-5-5-5-5-5-5-5-
A|-6-6-6-6-6-6-6-6-6-6-6-6-5-5-5-5-5-5-5-5-5-5-5-5-
E|-6-6-6-6-6-6-6-6-6-6-6-6-3-3-3-3-3-3-3-3-3-3-3-3-

E|-0-0-0-0-0-0-1-1-1-1-1-1-6-6-6-6-6-6-6-3-|
B|-0-0-0-0-0-0-1-1-1-1-1-1-6-6-6-6-6-6-6-3-|
G|-1-1-1-1-1-1-2-2-2-2-2-2-6-6-6-6-6-8-6-4-|
D|-2-2-2-2-2-2-3-3-3-3-3-3-8-8-8-8-8-8-8-5-|
A|-2-2-2-2-2-2-3-3-3-3-3-3-8-8-8-8-8-6-8-5-|
E|-0-0-0-0-0-0-1-1-1-1-1-1-6-6-6-6-6-6-6-3-|


i think its kinda right, the verse isnt strummed but i cant get it exactly right

Danny

hellsgarden@talk21.com
Comments