Foo Fighters - All My Life Chords & Tabs

 

All My Life Chords & Tabs

Foo Fighters Chords & Tabs

Version: 12 Type: Tab 0 ratings
1 star 2 stars 3 stars 4 stars 5 stars
comments

All My Life Tab

   
All My Life
Foo Fighters
One By One
Tabbed by Bal Sandher
 
This is the 100% correct version of this song, which I haven’t seen yet. To get
the Foos sound, you need a thick, crunchy valve type overdrive sound, through a
bridge humbucker. Dave Grohl and Chris Shiflett both use Mesa Boogie Dual
Rectifier Road King 100 Watt heads for their live performances, but I doubt they
are in many people’s price range. I created the sound on my 707 pedal. Use
overdrive rather than distortion, and have mid gain with high mids and bass.

 

Intro:

Guitar 1 (rhythm):
 |-------(X23)--------|
E|--------------------|----|
B|--------------------|----|
G|--------------------|----|
D|--------------------|-4*-| Place your fingers gently over strings
A|-5-5----5-5-5----5--|-4*-| to get a Natural Harmonic.
E|-3-3----3-3-3----3--|----|
  Pm-----------------|   NH


Pre-Verse:
Guitars 1 and 2:

    Gm                        Am       Gm                            Bbm   
E|-----------------|----------------|-----------------|----------------|
B|-----------------|----------------|-----------------|----------------|
G|--3-3-3-3-3—3—-3-|-3-3-3-3--5-5-5-|--3-3-3-3-3—3—-3-|-3-3-3-3--6-6-6-|
D|--5-5-5-5-5—5—-5-|-5-5-5-5--7-7-7-|--5-5-5-5-5—5—-5-|-5-5-5-5--8-8-8-|x2
A|--5-5-5-5-5—5—-5-|-5—5-5-5--7-7-7-|--5-5-5-5-5—5—-5-|-5—5-5-5--8-8-8-|
E|--3-3-3-3-3—3—-3-|-3-3-3-3--5-5-5-|--3-3-3-3-3—3—-3-|-3-3-3-3--6-6-6-|
   Short Rest--|                              Short rest--|

Verse:
Guitar 2 (lead):
E|-----------------|----------------|-----------------|----------------|
B|-----------------|----------------|-----------------|----------------|
G|----3------3—----|-3-----3--------|----3------3—----|-3-----3--------|
D|----5------5—----|-5-----5--------|----5------5—----|-5-----5--------| X4
A|-----------—-—---|--—-------------|-----------—-—---|--—-------------|
E|--3----3-3-—--3--|---3-3----------|--3----3-3-—--3--|---3-3----------|
   pm  pm---|   pm   pm--|            pm  pm---|  pm     pm--|

Guitar 1 (Rythm): 
                              Am                                  Bbm
E|-----------------|----------------|-----------------|----------------|
B|-----------------|----------------|-----------------|----------------|
G|------------—----|----------5-5-5-|------------—----|----------6-6-6-|
D|------------—----|----------7-7-7-|------------—----|----------8-8-8-| X3
A|-----------—-—---|--—-------7-7-7-|-----------—-—---|--—-------8-8-8-|
E|-----------—-----|----------5-5-5-|-----------—-----|----------6-6-6-|

On the 4th time, replace the Bbm with this:

()=Play first time only
E|--------------------|
B|--------------------|
G|--------------------| X2
D|--------------------|
A|-5-5----5-5-5--(5)--|
E|-3-3----3-3-3--(3)--|
 pm-------------------|
 
Chorus:

Guitars 1 and 2:

    Eb/G                                    Gm
E|--3--3--3--3--3--3--|--3--3--3--3—-3--3--|--3--3--3--3--3--3--|--3--3--3--3--3--0--|
B|--4--4--4--4—-4--4--|--4--4--4--4--4--4--|--3--3--3--3--3--3--|--3--3--3--3--3--0--|
G|--3--3--3--3--3--3--|--3--3--3--3--3--3--|--3--3--3--3--3--3--|--3--3--3--3--3--0--|
D|--5--5—-5-—5--5--5--|--5--5--5--5--5--5--|--5--5--5--5--5--5—-|--5--5--5--5--5--0--| 
A|--6—-6—-6--6--6—-6—-|--6--6--6--6--6--6--|--5--5--5--5--5-—5-—|--5—-5--5--5--5-----|
E|--3—-3—-3--3--3—-3--|--3--3--3--3—-3--3--|--3--3--3--3--3-—3--|--3--3--3--3--3-----|
[ Tab from: http://www.guitartabs.cc/tabs/f/foo_fighters/all_my_life_tab_ver_12.html ]
  C               F                   Bb
E|--0--0--0--0--0--1--|--1---1---1---1—----|--------------------|
B|--1--1--1--1—-1--1--|--1---1---1---1--3--|--3--3--3-----------|
G|--0--0--0--0--0--2--|--2---2---2---2--3--|--3--3--3-----------|
D|--2--2—-2-—2--2--3--|--3---3---3---3--3--|--3--3--3--3-0----—-| 
A|--3—-3—-3--3--3—-3—-|--3---3---3---3--1--|--1--1--1--1---1-0--|
E|-----------------1--|--1---1---1---1—----|--------------------|

Play X2, then:

Pre-verse
Verse
Chorus
Pre-verse then

Interlude:

*= Natural Harmonic
()=Don’t play first time

Guitar 1 (rhythm):

|-------(X46)--------|
E|--------------------|----|
B|--------------------|----|
G|--------------------|----|
D|--------------------|-4*-| 
A|-5-5----5-5-5----5--|-4*-| 
E|-3-3----3-3-3----3--|----|
 Pm-------------------| NH

After X17 Guitar 2 (lead):             |------------\
e|---------------------------|                      |
B|---------------------------|                      | 
G|---------------------------|                      |
D|---------------------------|  X4                  |
A|---------------------------|                      |
E|----3*-----3*-----3*-----3*|                      |
Then Guitar 2:                                      |----Play these over rythm
e|---------------------------|                      |
B|---------------------------|                      |
G|----5-bend-7---------------|                      |
D|---------------------------|   X12                |
A|---------------------------|                      |
E|---------------------------|         |------------/
Hold-------------------------|

 

Heavy Bit - (Guitars 1 and 2):
 ()=Don’t play last time

E|--------------------|
B|--------------------|
G|--------------------| X16
D|--------------------|
A|-5-5----5-5-5--(5)--|
E|-3-3----3-3-3--(3)--|

Then:
Chorus
Pre-verse X4
On last two times play this solo:

Guitar 2:
e|-66666666666666b8-6b8|-6666666666666b9-6b9|
B|---------------------|--------------------|
G|---------------------|--------------------| x2
D|---------------------|--------------------|
A|---------------------|--------------------|
E|---------------------|--------------------|

All my life I've been searching for something
Something never comes never leads to nothing
Nothing satisfies but I'm getting close
Closer to the prize at the end of the rope
All night long I dream of the day
When it comes around then it's taken away
Leaves me with the feeling that I feel the most
The feeling comes to life when I see your ghost
 
Come down don't you resist
You have such a delicate wrist
And if I give it a twist
Something to hold when I lose my breath
Will I find something in that
So give me just what I need
Another reason to bleed

ONE BY ONE hidden up my sleeve 
ONE BY ONE hidden up my sleeve

Hey don't let it go to waste
I love it but I hate the taste
Weight keeping me down (x2)

Will I find a believer
Another one who believes
Another one to deceive
Over and over down on my knees
If I get any closer
And if you open up wide
And if you let me inside
On and on I've got nothing to hide
On and on I've got nothing to hide

Hey don't let it go to waste
I love it but I hate the taste
Weight keeping me down (x2)

All my life I've been searching for something
Something never comes never leads to nothing 
Nothing satisfies but I'm getting close
Closer to the prize at the end of the rope
All night long I dream of the day
When it comes around then it's taken away
Leaves me with the feeling that I feel the most
The feeling comes to life when I see your ghost

And I'm done, done and I'm under the next one (x8)

Hey don't let it go to waste
I love it but I hate the taste
Weight keeping me down (x2)

Done done and under the next one
Done I'm done and I'm under the next


And there you go, correct for both guitars. Please Rate My tab, and look out for
my other tabs such as Monkey Wrench, and soon Hey Johnny, Park and Stacked Actors
(100% correct versions). Thanx a lot.
Comments