Foo Fighters - All My Life Chords & Tabs

 

All My Life Chords & Tabs

Foo Fighters Chords & Tabs

Version: 1 Type: Tab 0 ratings
1 star 2 stars 3 stars 4 stars 5 stars
comments

All My Life Tab

   
Tuning: Standard

Tabbed by: Quan Tran
keys,

¡  = release grip 
PM = palm mute
^  = bend down
h  = hammer on

****Intro****

palm muted
E|-------------------------------------------------------|
B|-------------------------------------------------------|
G|-------------------------------------------------------|
D|--5-5--5--5-5--5--5-5--5--5-5--------------------------|
A|--5-5--5--5-5--5--5-5--5--5-5--------------------------|
E|--3-3--3--3-3--3--3-3--3--3-3--------------------------|

after a G power chord's natural harmonic...

Guitar 1
E|----------------------------------------------------------|
B|----------------------------------------------------------|
G|------------------------3--3-------------------------6--6-|
D|-5-5---5-5¡--5-5-5---5--3--3--5-5---5-5¡--5-5-5---5--6--6-|
A|-5-5---5-5¡--5-5-5---5--1--1--5-5---5-5¡--5-5-5---5--4--4-|
E|-3-3-0-3-3¡--3-3-3-0-3--------3-3-0-3-3¡--3-3-3-0-3-------|

    
Guitar 2                                   
E|----------------------------------------------------------|   
B|----------------------------------------------------------|  
G|-3-3-3-3-3¡--3-3-3-3-3--5--5--3-3-3-3-3¡--3-3-3-3-3--6--6-| 
D|-x-x-x-x-x¡--x-x-x-x-x--x--x--x-x-x-x-x¡--x-x-x-x-x--x--x-|
A|-1-1-1-1-1¡--1-1-1-1-1--3--3--1-1-1-1-1¡--1-1-1-1-1--4--4-|
E|----------------------------------------------------------|


****Verse****

Guitar 1
E|-----------------------------------------------------------------------|
B|-----------------------------------------------------------------------|
G|------------------------------3--3--------------------------------6--6-|
D|------------------------------3--3--------------------------------6--6-|
A|------------------------------1--1--------------------------------4--4-|
E|-----------------------------------------------------------------------|

Guitar 2
[ Tab from: http://www.guitartabs.cc/tabs/f/foo_fighters/all_my_life_tab.html ]
played reeeeeally fast(the three 3 parts on the E string are triplet PMs)
E|-----------------------------------------------------------------------|
B|-----------------------------------------------------------------------|
G|----3-------3------3------3---5--5------3-------3------3------3---6--6-|
D|------------------------------x--x--------------------------------x--x-|
A|------------------------------3--3--------------------------------4--4-|
E|-3---3-3-3-------3--3-3-3-----------3----3-3-3-------3--3-3-3----------|
 |                                                                       | 
  \.............low E parts all palm muted............................../

****Chorus****

both guitars

E|-x-x-x-x-x-x-x-x-x-x-x-x-x-x-x-x-x-x-x-x-x-x-x-x-
B|-4-4-4-4-4-4-4-4-4-4-4-4-3-3-3-3-3-3-3-3-3-3-3-3-
G|-0-0-0-0-0-0-0-0-0-0-0-0-0-0-0-0-0-0-0-0-0-0-0-0-
D|-5-5-5-5-5-5-5-5-5-5-5-5-5-5-5-5-5-5-5-5-5-5-5-5-
A|-6-6-6-6-6-6-6-6-6-6-6-6-5-5-5-5-5-5-5-5-5-5-5-5-
E|-x-x-x-x-x-x-x-x-x-x-x-x-x-x-x-x-x-x-x-x-x-x-x-x-

E|-0-0-0-0-0-0-1-1-1-1-1-1-6-6-6-6-6-6-6-3-|
B|-1-1-1-1-1-1-1-1-1-1-1-1-6-6-6-6-6-6-6-3-|
G|-0-0-0-0-0-0-2-2-2-2-2-2-6-6-6-6-6-8-6-4-|
D|-2-2-2-2-2-2-3-3-3-3-3-3-8-8-8-8-8-8-8-5-|
A|-3-3-3-3-3-3-3-3-3-3-3-3-8-8-8-8-8-6-8-5-|
E|-0-0-0-0-0-0-1-1-1-1-1-1-6-6-6-6-6-6-6-3-|

****Interlude Soloing Parts**** (tabbed by Rob Joyce)

1st : natural harmonic of a G power chord

2nd :

bend down and slowly slide up
E|-----------------|    
B|-3---------------|   
G|-5^^^^^^^^^^^^^^7|  
D|-----------------| 
A|-----------------|
E|-----------------|

3rd :

E|-66666666666666h8^-6h8^|
B|-----------------------|
G|-----------------------|
D|-----------------------|
A|-----------------------|
E|-----------------------|

Feedback? Comments? Concerns?... punkpatches182@homtail.com

----------------------------------------------------------------------
do i look like i care what you say?
Comments