Foo Fighters - All My Life Chords & Tabs

 

All My Life Chords & Tabs

Foo Fighters Chords & Tabs

Version: 3 Type: Bass Tab 0 ratings
1 star 2 stars 3 stars 4 stars 5 stars
comments

All My Life Bass Tab

All My Life
by Foo Fighters

|-----------|(39 times)
|-----------|
|-----------|
|--2--2--2--|

|---------------------------------------------|
|---------------------------------------------|
|---------------------------------------------|
|--3h5--2--2--2--0--2--2--0--2--2--0--2--3--3-|

|------------------------------------|
|------------------------------------|
|------------------------------------|
|-0--2--0--2--2--0--2--2--0--2--5--5-|

|------------------------------------|
|------------------------------------|
|------------------------------------|
|-0--2--0--2--2--0--2--2--0--2--3--3-|

|------------------------------------|
|------------------------------------|
|------------------------------------|
|-0--2--0--2--2--0--2--2--0--2--5--5-|

|------------------------------------|
|------------------------------------|
|------------------------------------|
|-0--2--0--2--2--0--2--2--0--2--3--3-|

|------------------------------------|
|------------------------------------|
|------------------------------------|
|-0--2--0--2--2--0--2--2--0--2--5--5-|

|------------------------------------|
|------------------------------------|
|------------------------------------|
|-0--2--0--2--2--0--2--2--0--2--3--3-|

|------------------------------------|
|------------------------------------|
|------------------------------------|
|-0--2--0--2--2--0--2--2--0--2--5--5-|

|------------------------------------|
|------------------------------------|
|------------------------------------|
|-0--2--0--2--2--0--2--2--0--2--3--3-|

|------------------------------------|
|------------------------------------|
|------------------------------------|
|-0--2--0--2--2--0--2--2--0--2--5--5-|

|-----------|(4 times)
|-----------|
|-----------|
|--2--2--2--|

|------------------------------------------------------------------|
|------------------------------------------------------------------|
|------------------------------------------------------------------|
|-2----------2----------0-----------1-----------1h3----4--------2--|

|-----------------------------------------------------------|
|-----------------------------------------------------------|
|-----------------------------------------------------------|
|-2----------0----------1-----------1h3---------4-----------|

|------------------------------------|
|------------------------------------|
|------------------------------------|
|-2--2--0--2--2--0--2--2--0--2--3--3-|

|------------------------------------|
|------------------------------------|
|------------------------------------|
|-0--2--0--2--2--0--2--2--0--2--5--5-|

|------------------------------------|
|------------------------------------|
|------------------------------------|
|-0--2--0--2--2--0--2--2--0--2--3--3-|

|------------------------------------|
|------------------------------------|
|------------------------------------|
|-0--2--0--2--2--0--2--2--0--2--5--5-|
[ Tab from: http://www.guitartabs.cc/tabs/f/foo_fighters/all_my_life_btab_ver_3.html ]
|------------------------------------|
|------------------------------------|
|------------------------------------|
|-0--2--0--2--2--0--2--2--0--2--3--3-|

|------------------------------------|
|------------------------------------|
|------------------------------------|
|-0--2--0--2--2--0--2--2--0--2--5--5-|

|------------------------------------|
|------------------------------------|
|------------------------------------|
|-0--2--0--2--2--0--2--2--0--2--3--3-|

|------------------------------------|
|------------------------------------|
|------------------------------------|
|-0--2--0--2--2--0--2--2--0--2--5--5-|

|------------------------------------|
|------------------------------------|
|------------------------------------|
|-0--2--0--2--2--0--2--2--0--2--3--3-|

|--------------------------------|
|--------------------------------|
|--------------------------------|
|-0--2--0--2--2--0--2--2--0--2-0-|

|-----------|(4 times)
|-----------|
|-----------|
|--2--2--2--|

|------------------------------------------------------------------|
|------------------------------------------------------------------|
|------------------------------------------------------------------|
|-2----------2----------0-----------1-----------1h3----4--------2--|

|-----------------------------------------------------------|
|-----------------------------------------------------------|
|-----------------------------------------------------------|
|-2----------0----------1-----------1h3---------4-----------|

|------------------------------------|
|------------------------------------|
|------------------------------------|
|-2--2--0--2--2--0--2--2--0--2--3--3-|

|------------------------------------|
|------------------------------------|
|------------------------------------|
|-0--2--0--2--2--0--2--2--0--2--5--5-|

|-----------|(24 times)
|-----------|
|-----------|
|--2--2--2--|

|-----------|(48 times)
|-----------|
|-----------|
|--2--2--2--|

|-----------|(32 times)
|-----------|
|-----------|
|--2--2--2--|

|------------------------------------------------------------------|
|------------------------------------------------------------------|
|------------------------------------------------------------------|
|-2----------2----------0-----------1-----------1h3----4--------2--|

|-----------------------------------------------------------|
|-----------------------------------------------------------|
|-----------------------------------------------------------|
|-2----------0----------1-----------1h3---------4-----------|

|-----------|(16 times)    |-------|
|-----------|              |-------| 
|-----------|              |-------| 
|--2--2--2--|              |-2---2-|

   
     I looked everywhere for this, but I couldn't find it, so I came up with it myself.
     It should be just about right.
                            
     Happy bassing!!!      
                         
                         
                          In dedication of Joe, Eric, and Arthur.  Rock on!!!
Comments