Foo Fighters - Ain't It The Life Chords & Tabs

 

Ain't It The Life Chords & Tabs

Foo Fighters Chords & Tabs

Version: 1 Type: Tab 0 ratings
1 star 2 stars 3 stars 4 stars 5 stars
comments

Ain't It The Life Tab

Artist: Foo Fighters
Song: Aint it the Life
Album: There is nothing left to lose

Tabbed by: Paul Franssen, paulfranssen@yahoo.com

(standard tuning)

Intro:

 e|---0--0-------------0--0--0--0--0--0---------------------|
 B|---1----1-----------8--8--8--6--8--8---10-10-10-10-8-----|
 G|---0------0---------0--0--0--0--0--0-------------------9-|
 D|---2--------2-------9--9--9--7--9--9---------------------|
 A|---3----------3\8--10-10-10--8-10-10---------------------|
 E|---0----------------0--0--0--0--0--0---------------------|




  e|-----------------------0--0--0--3--0--|
  B|-----------------------1--1--1--3--1--|
  G|-----------------------0--0--0--0--0--|
  D|---6---6--6--6--6--8---2--2--2--2--2--|
  A|---6---6--6--6--6--8---3--3--3--3--3--|
  E|---4---4--4--4--4--6---0--0--0--0--0--|
   

  e|-------------------------------1--1--1--1--1-|
  B|-------------------------------1--1--1--1--1-|
  G|-------------------------------2--2--2--2--2-|
  D|-----5----5-----5----5--5---3--3--3--3--3--3-|
  A|-----5----5-----5----5--5---3--3--3--3--3--3-|
  E|-----3----3-----3----3--3---1--1--1--1--1--1-|
 


  

  e|-----------------------------0--0--0--3--0--|
  B|-----------------------------1--1--1--3--1--|
  G|-----------------------------0--0--0--0--0--|
  D|---6---6----6----6---6--8----2--2--2--2--2--|
  A|---6---6----6----6---6--8----3--3--3--3--3--|
  E|---4---4----4----4---4--6----0--0--0--0--0--|
   

  e|--------------------------1--1--1--1--1-|
  B|--------------------------1--1--1--1--1-|
  G|--------------------------2--2--2--2--2-|
  D|-----5--5---5--5--5---3---3--3--3--3--3-|
  A|-----5--5---5--5--5---3---3--3--3--3--3-|
  E|-----3--3---3--3--3---1---1--1--1--1--1-|
      


Bridge:
                                   e|-------------0---0-0---1-----------1-----|
                                   B|-------------1---1-1---1-------------1---|
                                   G|--5-5--4-4---2---2-2---1---------------1-|
                                   D|--5-5--4-4---2---2-2---3---------3-------|
                                   A|--3-3--2-2---0---0-0---3-------3---------|
                                   E|-------------0---0-0---1-----------------| 

 
Verse 2:



  e|---------------------------0--0--0--3--0--|
  B|---------------------------1--1--1--3--1--|
  G|---------------------------0--0--0--0--0--|
  D|---6---6---6--6---6---8----2--2--2--2--2--|
  A|---6---6---6--6---6---8----3--3--3--3--3--|
  E|---4---4---4--4---4---6----0--0--0--0--0--|
    


  e|--------------------------1--1--1--1--1-|
  B|--------------------------1--1--1--1--1-|
  G|--------------------------2--2--2--2--2-|
  D|-----5--5---5--5--5---3---3--3--3--3--3-|
  A|-----5--5---5--5--5---3---3--3--3--3--3-|
  E|-----3--3---3--3--3---1---1--1--1--1--1-|
  

[ Tab from: http://www.guitartabs.cc/tabs/f/foo_fighters/aint_it_the_life_tab.html ]
  e|-----------------------------0--0--0--3--0--|
  B|-----------------------------1--1--1--3--1--|
  G|-----------------------------0--0--0--0--0--|
  D|--6---6---6----6---6----8----2--2--2--2--2--|
  A|--6---6---6----6---6----8----3--3--3--3--3--|
  E|--4---4---4----4---4----6----0--0--0--0--0--|
     

  e|--------------------------1--1--1--1--1-|
  B|--------------------------1--1--1--1--1-|
  G|--------------------------2--2--2--2--2-|
  D|-----5---5--5---5--5--3---3--3--3--3--3-|
  A|-----5---5--5---5--5--3---3--3--3--3--3-|
  E|-----3---3--3---3--3--1---1--1--1--1--1-|
   


Repeat Bridge.


Chorus:

  

  e|---------------0-0-0-3-0-|
  B|---------------1-1-1-3-1-|
  G|----------5-5--0-0-0-0-0-|
  D|----6-6-6-5-5--2-2-2-2-2-|
  A|----6-6-6-3-3--3-3-3-3-3-|
  E|----4-4-4------0-0-0-0-0-|
  


  e|-------------1-1-1-1--|
  B|-------------1-1-1-1--|
  G|-------------2-2-2-2--|
  D|--5-5-5-5-3--3-3-3-3--|
  A|--5-5-5-5-3--3-3-3-3--|
  E|--3-3-3-3-1--1-1-1-1--|
      Sail on by


Repeat Chorus.


Solo:


  e|---0--0-------------0--0--0--0--0--0---------------------|
  B|---1----1-----------8--8--8--6--8--8---10-10-10-10-8-----|
  G|---0------0---------0--0--0--0--0--0-------------------9-|
  D|---2--------2-------9--9--9--7--9--9---------------------|
  A|---3----------3\8--10-10-10--8-10-10---------------------|
  E|---0----------------0--0--0--0--0--0---------------------|

  e|--------12-------------------12--------------------------------------------|
  B|--12-13----13-12-13----12-13----13-12--13--9/10-8---------9/10-8-----------|
  G|--------------------------------------------------7-9-9----------7-9-9-7-5-|
  D|---------------------------------------------------------------------------|
  A|---------------------------------------------------------------------------|
  E|---------------------------------------------------------------------------|

  e|------------------8--8-8-8-7-7-7-5/3-3-5-----|
  B|------------6/8-8------------------------5-5-|
  G|--5-5-5-5-5-7/9------------------------------|
  D|---------------------------------------------|
  A|---------------------------------------------|
  E|---------------------------------------------|

  e|-------------------------------------------------------|
  B|-8-8-8-8-6-5---8-8-8-8-6-5--3-3-3-3-1--1---3-3-3-1--1--|
  G|---9-9-9-7-5-----9-9-9-7-5----4-4-4-2-2-2--4-4-4-2-2-2-|
  D|-------------------------------------------------------|
  A|-------------------------------------------------------|
  E|-------------------------------------------------------|


  e|---------------0----3-----3---------1-1-1-|
  B|-----------1----1----------3---1----1-1-1-|
  G|-------------0---0----------0----2--2-2-2-|
  D|--6----8----2-2-------0---------3-3-3-3-3-|
  A|---6----8--3---------2-2-------3----3-3-3-|
  E|-4----6-------------3---------------1-1-1-|


Bridge.

Chorus 2x.

Outro:

  e|-------------------------------------------------------|
  B|-8-8-8-8-6-5---8-8-8-8-6-5--8-8-8-8-6-5---8-8-8-8-6-5--|
  G|-9-9-9-9-7-5---9-9-9-9-7-5--9-9-9-9-7-5---9-9-9-9-7-5--|
  D|-------------------------------------------------------|
  A|-------------------------------------------------------|
  E|-------------------------------------------------------|


That's all folks.
Comments