Foo Fighters - A320 Chords & Tabs

 

A320 Chords & Tabs

Foo Fighters Chords & Tabs

Version: 2 Type: Tab 0 ratings
1 star 2 stars 3 stars 4 stars 5 stars
comments

A320 Tab

Artist:  Foo Fighters
Title: A320 (solo)
Album: Godzilla Soundtrack

Ok, I can figure out the solo to A320, but I still dont know the chorus, so this
is like an addition to the A320 original tab. The solo is divided into two parts.
One part is pretty raw (the first one) and the second part is equipped with
violins in the background. 

Here is the solo:
[ Tab from: http://www.guitartabs.cc/tabs/f/foo_fighters/a320_tab_ver_2.html ]
This comes in at about 2:50. It has a small cresendo and it busts into distortion:
e|--------------------------------------------------|
B|--------------------------------------------------|
G|--4--4--5-5--9--9--10--10-------------------------|
D|--x--x--x-x--x--x--x---x------5-5-x-5-5-x-5-5-----|
A|--2--2--3-3--7--7--8---8------5-5-x-5-5-x-5-5-----|
E|------------------------------3-3-x-3-3-x-3-3-----|
In the 3/5/5 part, you can also change the mutes to all open strings. It doesnt
matter. Sounds pretty mucht he same, it just has to be quick. And at the end of
this section, he bends the 10/x/8 and goes to the next riff.


This part comes in at about 3:34
e|----------------------------------------------------|
B|----------------------------------------------------|
G|----------------------------------------------------|
D|--5--6--9----4-4-5-4-4----9--10-11--5--6--7---------|
A|--5--x--x----4-4-5-4-4----x--x--x---x--x--x---------|
E|--3--4--7----2-2-3-2-2----7--8--9---3--4--5---------|
It isnt hard. At all. It is really fun to play though!

Questions? incubusdude17@hotmail.com
Comments