Foo Fighters - A320 Chords & Tabs

 

A320 Chords & Tabs

Foo Fighters Chords & Tabs

Version: 1 Type: Tab 0 ratings
1 star 2 stars 3 stars 4 stars 5 stars
comments

A320 Tab

Artist: Foo Fighters
Song: A320
Album: Godzilla Soundtrack

This song is in standard tuning. It came from the Godzilla Soundtrack. It is a
really decent song. I can only figure out the intro and verse. I get confused
near the end when the distortion and the violins come in, but that is the best
part of the song! But overall, the song is really relaxing. The intro and verses
are all clean. 

[ Tab from: http://www.guitartabs.cc/tabs/f/foo_fighters/a320_tab.html ]
INTRO
e||---------------------------------||
B||---------------------------------||
G||---------------------------------||
D||---------------------------------||
A||-----5----5----4----4-5-4-2-0----||
E||--3----3----3----3------------0--||



VERSE
(Gtr. 1)
e||---------------------------------|-----------------||
B||---------------------------------|-----------------||
G||---------------------------------|-----------------||
D||---------------------------------|-----------------||
A||-----5----5----4----4-5-4-2-0----|----5----5----4--||
E||--3----3----3----3-------------0-|-3----3----3-----||
  (3x)

That is all I can get right now. I would be grateful is someone could tab the
rest of the song. If you know the rest or have any questions, please email me at
incubusdude17@hotmail.com
Comments