Fony - Chore Again Chords & Tabs

 

Chore Again Chords & Tabs

Fony Chords & Tabs

Version: 2 Type: Tab 0 ratings
1 star 2 stars 3 stars 4 stars 5 stars
comments

Chore Again Tab

Song Title:   Chore Again
Artist: Fony

Intro 

guitar 1 

d|-------------------------------------------------------------------|
a|-------------------------------------------------------------------|
f|---------9999--10101010-12121212-----------------------------------|
c|---0000--7777--8-8-8-8--8-8-8-8------------------------------------|
g|---0000--7777--8-8-8-8--8-8-8-8------------------------------------|
c|---0000--0000--0-0-0-0--0-0-0-0------------------------------------|  x4

guitar 2 

d|-------------------------------------------------------------------|
a|-------------------------------------------------------------------|
f|-------------------------------------------------------------------|
c|--0~~~~~~----------------------------------------------------------|
g|--0~~~~~~----------------------------------------------------------|
c|--0~~~~~~----------------------------------------------------------| x2 
    Volume Swell
Chorus

Both Guitars

d|---------------------------------------------|   	  |---------------------------------------------|
a|---------------------------------------------|   	  |---------------------------------------------|
f|---------9999--10101010-12121212-------------|   	  |---------9999--10101010----------------------|
c|---0000--7777--8-8-8-8--10101010-------------| On Last |---0000--7777--8-8-8-8--3333--0~~~~~---------|
g|---0000--7777--8-8-8-8--10101010-------------|    	  |---0000--7777--8-8-8-8--3333--0~~~~~---------|
c|---0000--0000--0-0-0-0--0-0-0-0--------------|x4       |---0000--0000--0-0-0-0--3333--0~~~~~---------|
                                                                                  p.m.  let ring
Verse                                                                             

Guitar 1

d|-------------------------------------------------------------------|    
a|-------------------------------------------------------------------|    
f|---------9-----------------12--------------------------------------|     
c|-------7---7-------------8----8------------------------------------|     
g|-----7-------7---------8--------8----------------------------------|     
c|---0-----------------0---------------------------------------------| x8


Guitar 2
[ Tab from: http://www.guitartabs.cc/tabs/f/fony/chore_again_tab_ver_2.html ]
d|-------------------------------------------------------------------|     
a|-------------------------------------------------------------------|     
f|-------------------------------------------------------------------|     
c|----0000--7777-8888-9999-------------------------------------------|     
g|----0000--7777-8888-9999-------------------------------------------|     
c|----0000--7777-8888-9999-------------------------------------------| x4
 p.m  ____  ____ ____ ____ 


2nd Chorus

Both Guitars

d|---------------------------------------------|   	   |-------------------------------------------------|
a|---------------------------------------------|   	   |-------------------------------------------------|
f|---------9999--10101010-12121212-------------|   	   |---------9999--10101010--------------------------|
c|---0000--7777--8-8-8-8--10101010-------------| On Last  |---0000--7777--8-8-8-8--101010101010101010101010-|
g|---0000--7777--8-8-8-8--10101010-------------|    	   |---0000--7777--8-8-8-8--101010101010101010101010-|
c|---0000--0000--0-0-0-0--0-0-0-0--------------|x4        |---0000--0000--0-0-0-0--101010101010101010101010-|
                                                                                  

Interlude - this can be done on 1 guitar if done fast enough
Is written here in right timing... i think :)
   
Guitar 1
   
d|-------------------------------------------------------------------|     
a|-------------------------------------------------------------------|     
f|-------------------------------------------------------------------|     
c|---0000-----------8888---------------------------------------------|     
g|---0000-----------8888---------------------------------------------|     
c|---0000-----------8888---------------------------------------------| x8

Guitar 2

d|-------------------------------------------------------------------|     
a|-------------------------------------------------------------------|     
f|----------9999-----------12121212----------------------------------|     
c|----------7777-----------8-8-8-8-----------------------------------|     
g|----------7777-----------8-8-8-8-----------------------------------|     
c|----------0000-----------0-0-0-0-----------------------------------| x8


Outro 

Both Guitars

d|-------------------------------------------------------------------|     
a|-------------------------------------------------------------------|     
f|-------------------------------------------------------------------|     
c|---1212121212121212--7777-3333---10101010101010--6666--5555--------|     
g|---1212121212121212--7777-3333---10101010101010--6666--5555--------|     
c|---1212121212121212--7777-3333---10101010101010--6666--5555--------| x10 

that should be it, if Ashley W sees this, lol, u know who this is
Comments