Fono - Collide Chords & Tabs

 

Collide Chords & Tabs

Fono Chords & Tabs

Version: 2 Type: Bass Tab 0 ratings
1 star 2 stars 3 stars 4 stars 5 stars
comments

Collide Bass Tab

   
Collide

Artist - Fono
Album - Goes Around Comes Around
Copyright - Reunion Records INC.

Tabbed (with permission) by Nik Baker redfox_d@hotmail.com

Collide
Trak 01


Riff A
                                    1,2,3   4
                                    ______ ____________
                                   |      |
G -|-------------------------------|------|------------|  
D -|*------------------------------|-----*|--4-4---2-2-|  
A 4|*-4-4---4-0-0---0-0-0---0-0-0--|-2-2-*|------------| 
E -|-------------------------------|------|------------|


Riff B	         		    1,2,3   4
                                    ______ _________________________
                                   |      |
G -|-------------------------------|------|-------------------------|  
D -|*------------------------------|-----*|-------------------------|  
A 4|*-4-4---4-0-0---0-0-0---0-0-0--|-2-2-*|-------------------------| 
E -|-------------------------------|------|--4--4--4--4--4--4--4/16-| 


Riff C
                  
G |--------------------|
D |*----2-----2-2-1-1-*|
A |*-4-4--0-0---------*|
E |--------------------|

[ Tab from: http://www.guitartabs.cc/tabs/f/fono/collide_btab_ver_2.html ]
Riff D
                   
G |-------------------------------------------------------------|
D |-----------------------1-1-2-2--2-2-2--2-2-2--2-2-2-4-4-6-6--|       
A |-4-4-4---4-4-4---4-4-4---------------------------------------|
E |-------------------------------------------------------------|     


G |----------------------------------------------|     
D |-6-6-6--6-6-6-4-4-2-2--2-2-2--2-2-2--11-11-11-|
A |----------------------------------------------|
E |----------------------------------------------|


Outro
                   
G |-------------------------------------------------------------|
D |-----------------------1-1-2-2--2-2-2--2-2-2--2-2-2-4-4-6-6--|        
A |-4-4-4---4-4-4---4-4-4---------------------------------------|
E |-------------------------------------------------------------|     


G |------------------------------------------------|                         
D |-6-6-6--6-6-6-4-4-2-2--2-2-2--2-2-2--2-6-6-4-4-2|                     
A |------------------------------------------------|                    
E |------------------------------------------------|

Order

Riff A
Riff B
Riff C 4 times
Riff B
Riff C		                                                                 
Riff D
Riff B (4th time bar only)
No bass                                                  
Riff C 4 times
Outro - This is not the proper outro, though it does fit. If anyone can work it 
out would they please mail it to me!                                            

Any comments or suggestions please mail me redfox_d@hotmail.com . I am also 
writing some tabs to go along with these bass tabs.
Comments