Folly - Broken Chords & Tabs

 

Broken Chords & Tabs

Folly Chords & Tabs

Version: 2 Type: Tab

Broken Tab

                     Broken (breakdown only) - Folly
---------------------------------------------------------------------------------------------------|
Tabbed by: Luke Ellis
Email: sparda716@yahoo.com

[ Tab from: http://www.guitartabs.cc/tabs/f/folly/broken_tab_ver_2.html ]
e|----------------------------------------------|
b|----------------------------------------------|
g|---------14-----------15-----------12---------|
d|(4x)--12----(4x)--12-----(4x)--12-------------|
a|----------------------------------------------|
E|----------------------------------------------|

repeat that first part and then go into this

e|----------------------------------------------|
b|----------------------------------------------|
g|----------12----------10-----------9----------|
d|-(8x)-10-----(8x)-10------(4x)-10-------------|
a|----------------------------------------------|