Folksmen - Never Did No Wanderin Chords & Tabs

 

Never Did No Wanderin Chords & Tabs

Folksmen Chords & Tabs

Version: 1 Type: Chords 0 ratings
1 star 2 stars 3 stars 4 stars 5 stars
comments

Never Did No Wanderin Chords

   
Original Motion Picture Soundtrack - A Mighty Wind
-----------------------------------------------------------------------
NEVER DID NO WANDERIN' - The Folksmen
-----------------------------------------------------------------------

Tabbed by: Stefan
Email: akd879@yahoo.com	

Tuning: Standard EADGBe



Intro:


A|---------------0----2---2--0----------------------  
E|---0---0---3--------------------3----------------- 

then
[ Tab from: http://www.guitartabs.cc/tabs/f/folksmen/never_did_no_wanderin_crd.html ]
e|---------------------------------------------------------------------
B|-----0-0-0----0-0-0-----0-0-0------0-0-0----------------------------- 
G|-----0-0-0----0-0-0-----0-0-0------0-0-0-----------------------------    
D|-----2-0-2----2-0-2-----2-0-2------2-0-2-----------------------------
A|-----2-2-2----2-2-2-----2-2-2------2-2-2-----------------------------
E|---------------------------------------------------------------------


   Em             D 
My mama was the cold North wind,

    Em            G   D          Em              D
My daddy was the so - n, of a railroad man from west of hell,

             C      D        Em 
Where the trains don't even run......

        G                       D
Never heard the whistle of a southbound freight,

          Em                     B7
Or the singing of it's driving wheel,

     Em                D
No I, never did no wanderin'

  Em           G      D
Never did no wan - derin'

  Em            D            Em
Never did no wanderin' after all

B7= EADGBe
    x21202
Comments