Folk Implosion - Natural One Chords & Tabs

 

Natural One Chords & Tabs

Folk Implosion Chords & Tabs

Version: 2 Type: Bass Tab 0 ratings
1 star 2 stars 3 stars 4 stars 5 stars
comments

Natural One Bass Tab

   
#----------------------------------PLEASE NOTE---------------------------------#
#This file is the author's own work and represents their interpretation of the #
#song. You may only use this file for private study, scholarship, or research. #
#------------------------------------------------------------------------------#
#


From trillian@bu.edu Thu May  8 16:47:47 1997
Date: Sun, 27 Apr 1997 14:51:28 -0400 (EDT)
From: EleKtRA 
To: guitar@olga.net
Cc: trillian@cs.bu.edu
Subject: Bass tab: Natural One by FOLK IMPLOSION



		BAss Tab: NatURal OnE by FOLK IMPLoSION

Hi everyone!
This song has an easy yet beautiful bass line, but it keeps on changing.  
I've included all of the little parts; you'll have to figure out the 
arrangement yourselves cuz I don't see any sort of order in it!


PART I (Used in intro and various other places)
[ Tab from: http://www.guitartabs.cc/tabs/f/folk_implosion/natural_one_btab_ver_2.html ]
     3X          one ending     another ending
D--------------|-------------|---4--2------------------------
A---0-2h3h2-0--|----0--------|--------4----------------------
E-2------------|--2---4s2-0--|-2-----------------------------


PART II (Verse and melody)___________________________________
                          |1.
D----4--2-----------------|---4--2-----------------------------
A---------4-----0-2h3h2-0-|-------4---0-2-3-4-----------------
E--2---------2------------|-2-------2-------------------------
_______________________________
|2.
D---4--2---------------------.-|  <-(Those dots are repeat signs):)
A-------4-----0--------------.-|
E-2--------2-----4s2--0--------|


****** BONUS **********

Just cuz I like you guys so much, I'll give you the melody too!

(high e)
                                    
e--0-2-3-3--2-4-4--2-5-----------0-2-3-3--22-4-4--2-5---------


HapPy PlayinG!!
EleKtRa
xoxo
Comments