Folds Ben - Rockin The Suburbs Chords & Tabs

 

Rockin The Suburbs Chords & Tabs

Folds Ben Chords & Tabs

Version: 1 Type: Tab 0 ratings
1 star 2 stars 3 stars 4 stars 5 stars
comments

Rockin The Suburbs Tab

Intro: (Play 4x)

--------------------------------------------------------------
--------------------------------------------------------------
---5--5--x-x--7-7--x-x-----------5--5-------------------------
---5--5--x-x--7-7--x-x--3--3--x--3--3-------------------------
---3--3--x-x--5-5--x-x--3--3--x--3--3-------------------------
------------------------1--1--x-------------------------------

Then, the last time play this:

-----------
-----------
--7--10----
--7--10----
--5--8-----
-----------

Verse: Play this easy riff untill the distortion kicks in.

------------------------
------------------------
--------2---------------
--2--4------2--4--------
------------------3-----
------------------------
Y'all don't know what it's like....
It's a bitch if you don't......

Chorus:

Play this throughout the chorus (cant b bothered 2 count how many times)  
------------------------------
------------------------------
---7-7-7-7---10-10--5---------
---7-7-7-7---10-10--5---------
---5-5-5-5---8--8---3---------
------------------------------
I'm rockin the suburbs........

Until:

---------------------------
---------------------------
--7--10-----------------------
--7--10-----------------------
--5--8-----------------------
---------------------------
That some producer with computers.......


Then play the intro riff through this verse:

--------------------------------------------------------------
--------------------------------------------------------------
---5--5--x-x--7-7--x-x-----------5--5-------------------------
---5--5--x-x--7-7--x-x--3--3--x--3--3-------------------------
---3--3--x-x--5-5--x-x--3--3--x--3--3-------------------------
------------------------1--1--x-------------------------------
I'm pissed off but i'm too polite....

Chorus:

------------------------------
------------------------------
---7-7-7-7---10-10--5---------
---7-7-7-7---10-10--5---------
---5-5-5-5---8--8---3---------
------------------------------
I'm rockin the suburbs........

Until:

---------------------------
---------------------------
--7--10-----------------------
--7--10-----------------------
--5--8-----------------------
---------------------------
That some producer with computers.......
[ Tab from: http://www.guitartabs.cc/tabs/f/folds_ben/rockin_the_suburbs_tab.html ]
--Then there's a piano interlude for the next verse--

Until the first verse riff comes back for the limp bizkit piss take bit.
------------------------
------------------------
--------2---------------
--2--4------2--4--------
------------------3-----
------------------------
Y'all don't know what it's like, being male middle class and white.

Then middway it changes again to the other riff: 
--------------------------------------------------------------
--------------------------------------------------------------
---5--5--x-x--7-7--x-x-----------5--5-------------------------
---5--5--x-x--7-7--x-x--3--3--x--3--3-------------------------
---3--3--x-x--5-5--x-x--3--3--x--3--3-------------------------
------------------------1--1--x-------------------------------

Y'all don't know what it's like, being male middle class and white.
It gets me real pissed of it makes me wanna say....

Then another chorus:
------------------------------
------------------------------
---7-7-7-7---10-10--5---------
---7-7-7-7---10-10--5---------
---5-5-5-5---8--8---3---------
------------------------------
I'm rockin the suburbs........

Until:

---------------------------
---------------------------
--7--10-----------------------
--7--10-----------------------
--5--8-----------------------
---------------------------
That some producer with computers.......

Then I think the riff changes to this:
-----------------------------
------------------------------
--7-7--5-5--9-9--7-------------------
--7-7--5-5--9-9--7------------------
--5-5--3-3--7-7--5----------------------
-------------------------------
These days, yeah yeah
I'm rockin the suburbs, yeah yeah

-----------------
----------------
--7--10--------------
--7--10-------------
--5--8--------------
-----------------

Then theres the " u betta watch out coz i'm gonna say fuck!" bit with a crazy bass line until the end.

Well thats about it. I tried my best and i hope it's okay, the order might be a bit mixed up but you'll work it out.
I'm 13 years old and this is my first attempt at a tab! Incase you have any questions or comments, mail me @ sk8rdude555@hotmail.com

P.S
Throughout the song where there's the riff like the one in the intro, the F chord on the E string could be replaced with F played on the A string 
Comments