Fokofpolisiekar - Hemel Op Die Platteland Chords & Tabs

 

Hemel Op Die Platteland Chords & Tabs

Fokofpolisiekar Chords & Tabs

Version: 1 Type: Tab 0 ratings
1 star 2 stars 3 stars 4 stars 5 stars
comments

Hemel Op Die Platteland Tab

This is one of South-Africas best Rock band ever
Their homepage : www.fokofpolisiekar.co.za

Intro

Palm mute this

E||--------------------------|--------------------------|
B||--------------------------|--------------------------|
G||--7--------7--------------|--------------------------|  x4
D||--7--7--7--7--7--7--7--7--|--7--7--7--7--7--7--7--7--|
A||--5--5--5--5--5--5--5--5--|--5--5--5--5--5--5--5--5--|
E||--------------------------|--------------------------|

heavy intro x2
|--------------------------|--------------------------|
|--------------------------|--------------------------|
|--------------------------|--------------------------|
|--7--7--7--7--7--7--7--7--|--7--7--7--7--7--7--7--7--|
|--7--7--7--7--7--7--7--7--|--7--7--7--7--7--7--7--7--|
|--5--5--5--5--5--5--5--5--|--5--5--5--5--5--5--5--5--|

|--------------------------|--------------------------|
|--------------------------|--------------------------|
|--5--5--5--5--5--5--5--5--|--------------------------|
|--5--5--5--5--5--5--5--5--|--5--5--5--5--5--5--5--5--|
|--3--3--3--3--3--3--3--3--|--5--5--5--5--5--5--5--5--|
|--------------------------|--3--3--3--3--3--3--3--3--|


Verse

                        "Kan jy my skroefe vir my vasdraai"
e:-----------------------------------------------------|
b:-----------------------------------------------------|
g:-----------------------------------------------------|
d:---7~~~~~~~~~~~~~~~~~~~~~~~~~~~~~~~~~~~~~~~~~~~~~~~~~
a:---7~~~~~~~~~~~~~~~~~~~~~~~~~~~~~~~~~~~~~~~~~~~~~~~~~
e:---5~~~~~~~~~~~~~~~~~~~~~~~~~~~~~~~~~~~~~~~~~~~~~~~~~

e:-----------------------------------------------------|
b:-----------------------------------------------------|
g:---5~~~~~~~~~~~~~~~~~~~~~~~~~~-----------------------|
d:---5~~~~~~~~~~~~~~~~~~~~~~~~~~---5-5-----------------|
a:---3~~~~~~~~~~~~~~~~~~~~~~~~~~---5-5-----------------|
e:---------------------------------3-3-----------------|
                                                                                        **

                       "Kan jy my albasters, vir my vind
e:-----------------------------------------------------|
b:-----------------------------------------------------|
g:-----------------------------------------------------|
d:---7~~~~~~~~~~~~~~~~~~~~~~~~~~~~~~~~~~~~~~~~~~~~~~~~~
a:---7~~~~~~~~~~~~~~~~~~~~~~~~~~~~~~~~~~~~~~~~~~~~~~~~~
e:---5~~~~~~~~~~~~~~~~~~~~~~~~~~~~~~~~~~~~~~~~~~~~~~~~~

e:-----------------------------------------------------|
b:-----------------------------------------------------|
g:---5~~~~~~~~~~~~~~~~~~~~~~~~~~-----------------------|
d:---5~~~~~~~~~~~~~~~~~~~~~~~~~~---5-5-5-5-5-5---------|
a:---3~~~~~~~~~~~~~~~~~~~~~~~~~~---5-5-5-5-5-5---------|
e:---------------------------------3-3-3-3-3-3---------|

"Kan jy jou...."
e:--------------------------|--------------------------|
b:--------------------------|--------------------------|
g:--5--5--5--5--5--5--5--5--|--5--5--5--5--5--5--5-----|
d:--5--5--5--5--5--5--5--5--|--5--5--5--5--5--5--5--5--|
a:--3--3--3--3--3--3--3--3--|--3--3--3--3--3--3--3--5--|
e:--------------------------|-----------------------3--|
[ Tab from: http://www.guitartabs.cc/tabs/f/fokofpolisiekar/hemel_op_die_platteland_tab.html ]
|--------------------------|--------------------------|
|--------------------------|--------------------------|
|--------------------------|--------------------------|
|--3--3--3--3--3--3--3--3--|--5--5--5--5--5--5--5--5--|
|--3--3--3--3--3--3--3--3--|--5--5--5--5--5--5--5--5--|
|--1--1--1--1--1--1--1--1--|--3--3--3--3--3--3--3--3--|
                           (Palm mute this last piece)

:"Kan iemand dalk vir God bel..."
e:--------------------------|--------------------------|
b:--------------------------|--------------------------|
g:--------------------------|--------------------------|Palm mute all
d:--7--7--7--7--7--7--7--7--|--7--7--7--7--7--7--7--7--|
a:--7--7--7--7--7--7--7--7--|--7--7--7--7--7--7--7--7--|
e:--5--5--5--5--5--5--5--5--|--5--5--5--5--5--5--5--5--|

|--------------------------|--------------------------|
|--------------------------|--------------------------|
|--5--5--5--5--5--5--5--5--|--------------------------|Palm Mute all
|--5--5--5--5--5--5--5--5--|--5--5--5--5--5--5--5--5--|
|--3--3--3--3--3--3--3--3--|--5--5--5--5--5--5--5--5--|
|--------------------------|--3--3--3--3--3--3--3--3--|

   "en vir hom sÍ..."
e:--------------------------|--------------------------|
b:--------------------------|--------------------------|
g:--------------------------|--------------------------|
d:--7--7--7--7--7--7--7--7--|--7--7--7--7--7--7--7--7--|
a:--7--7--7--7--7--7--7--7--|--7--7--7--7--7--7--7--7--|
e:--5--5--5--5--5--5--5--5--|--5--5--5--5--5--5--5--5--|

|--------------------------|--------------------------|
|--------------------------|--------------------------|
|--5--5--5--5--5--5--5--5--|--------------------------|
|--5--5--5--5--5--5--5--5--|--5--5--5--5--5--5--5--5--|
|--3--3--3--3--3--3--3--3--|--5--5--5--5--5--5--5--5--|
|--------------------------|--3--3--3--3--3--3--3--3--|


   "Reguleer my...."
e:--------------------------|--------------------------|------------------------|
b:--------------------------|--------------------------|------------------------|
g:--5--5--5--5--5--5--5--5--|--5--5--5--5--5--5--5-----|------------------------|
d:--5--5--5--5--5--5--5--5--|--5--5--5--5--5--5--5--5--|----3----3--3--3--3--3--|
a:--3--3--3--3--3--3--3--3--|--3--3--3--3--3--3--3--5--|----3----3--3--3--3--3--|
e:--------------------------|-----------------------3--|----1----1--1--1--1--1--|

|--------------------------|--------------------------|
|--------------------------|--------------------------|
|--------------------------|--------------------------|
|--3--3--3--3--3--3--3--3--|--5--5--5--5--5--5--5--5--|
|--3--3--3--3--3--3--3--3--|--5--5--5--5--5--5--5--5--|
|--1--1--1--1--1--1--1--1--|--3--3--3--3--3--3--3--3--|


   "En stuur my dan waarheen al die dose gaan"
e:--------------------------|--------------------------|
b:--------------------------|--------------------------|
g:--5--5--5--5--5--5--5--5--|--5--5--5--5--5--5--5--5--|
d:--5--5--5--5--5--5--5--5--|--5--5--5--5--5--5--5--5--|
a:--3--3--3--3--3--3--3--3--|--3--3--3--3--3--3--3--3--|
e:--------------------------|--------------------------|

|--------------------------|--------------------------|
|--------------------------|--------------------------|
|--------------------------|--------------------------|
|--3--3--3--3--3--3--3--3--|--3--3--3--3--5--5--5--5--|
|--3--3--3--3--3--3--3--3--|--3--3--3--3--5--5--5--5--|
|--1--1--1--1--1--1--1--1--|--1--1--1--1--3--3--3--3--|

I havn't figured out the solo yet but I would appreciate someone to help
Comments