Foghat - Slow Ride Chords & Tabs

 

Slow Ride Chords & Tabs

Foghat Chords & Tabs

Version: 4 Type: Tab 0 ratings
1 star 2 stars 3 stars 4 stars 5 stars
comments

Slow Ride Tab

   
Transcribed by www.mikesguitarsite.co.uk

Words & Music by Dave Peverett




Gtr I (E B E G# B E) - 'Rod "The Bottle" Price  - w/slide'
Gtr II (E A D G B E) - 'Lonesome Dave Peverett'

Intro
  Q=114
 4/4
  Gtr II
  Wx2          E E E E +E  E E E   +E  E E E E E Q
|------------|-------------------|----------------------|
|------------|-------------------|----------------------|
|------------|-2-2---2-(2)-2---2-|-(2)-2---2------------|
|------------|-2-2---2-(2)-2---2-|-(2)-2---2-2---2------|
|------------|-0-----------------|-----------3p0-3b3.5--|
|------------|-------------------|----------------------|


  E E E E E E E E   E E Q  +Q      +Q
|-----------------|-----------------------|
|-----------------|-----------------------|
|---2---2---2---2-|---2-2--(2)-----(2)----|
|-2-2---2---2---2-|-2-2-2--(2)-----(2)----|
|-0-------0-------|-0---------------------|
|-----------------|-----3--(3)b4===(3)r---|


  Gtr I
   <
   ~~~~~~~~~~~~~~~~~~~~~~~~~~~~~~~~~~~~~~~
   w                    +w
|-17-----------------|-(17)--------------|
|--------------------|-------------------|
|--------------------|-------------------|
|--------------------|-------------------|
|--------------------|-------------------|
|--------------------|-------------------|
|
| gtr ii
|  E E E E +E  E E E    +E  E E E E E q
|--------------------|-------------------|
|--------------------|-------------------|
|--2-2---2-(2)-2---2-|--(2)-2---2--------|
|--2-2---2-(2)-2---2-|--(2)-2---2-2---2--|
|--0-----------------|------------3p0-3--|
|--------------------|-------------------|


 ~~~~~~
   +w                   +h.           q
|-(17)---------------|-(17)\------------||
|--------------------|------------------||
|--------------------|------------------||
|--------------------|------------------||
|--------------------|------------------||
|--------------------|------------------||
|
|   E  E E E E E E E     E   E E E q  q
|--------------------|------------------||
|--------------------|------------------||
|------2---2---2---2-|---2---2---2-2--2-||
|---2--2---2---2---2-|---2---2---2-2--2-||
|---0--------0-------|-------------0--0-||
|--------------------|------------------||


 chorus
  q   E E   q   q      E E E E E E E E   q   E E   q   q      E E E E E E E E
|--------------------|-----------------|--------------------|------------------|
|--------------------|-----------------|--------------------|------------------|
|--------------------|-----------------|--------------------|------------------|
|-5-------/10---8\---|---5-----5-5-----|-5-----5-/10---8\---|---5-----5-5------|
|--------------------|-5---5-------5---|-----5--------------|-5---5-------5----|
|-5-----5-/10---8\---|-5-----5-5-----5-|-5---5---/10---8\---|-5-----5-5-----5--|
|
| E E E E   E E E  E   E E E E E E E E   E E E E   E E E  E   E E E E E E E E
|--------------------|-----------------|--------------------|------------------|
|--------------------|-----------------|--------------------|------------------|
|---2---2----------0-|---2---2---2---2-|---2---2-----2----0-|---2---2---2---0--|
|---2---2-----2------|-2-2---2---2---2-|---2---2-----2----0-|-2-2---2-2-2---0--|
|-0---------5---3----|-0-------0-------|-0---------5---3----|-0----------------|
|--------------------|-----------------|--------------------|------------------|


  E E E E   q   q      E E E E E E E E   E E E E   q   q      E E E E E E E E
|--------------------|-----------------|--------------------|------------------|
|--------------------|-----------------|--------------------|------------------|
|--------------------|-----------------|--------------------|------------------|
|-5-5-----/10---8\---|---5-----5-5-----|-5-5-----/10---8\---|---5-----5-5------|
|-----5--------------|-5---5-------5---|-----5--------------|-5---5-------5----|
|-5-----5-/10---8\---|-5-----5-5-----5-|-5-----5-/10---8\---|-5-----5-5-----5--|
|
| E E E E   E E E  E   E E E E E E E E   E E E E   E E E  E   E E E E E E E E
|--------------------|-----------------|--------------------|------------------|
|--------------------|-----------------|--------------------|------------------|
|---2---2----------0-|---2---2---2---2-|---2---2-----2----0-|---2---2---2---2--|
|---2---2-----2------|-2-2---2---2---2-|---2---2-----2----0-|-2-2---2-2-2---2--|
|-0---------5---3----|-0-------0-------|-0---------5---3----|-0----------------|
|--------------------|-----------------|--------------------|------------------|


  q   E E  E  E E E   E E E E E E E E   q   E E  E  E E E   E E E E E E E E
|-------------------|-----------------|-------------------|------------------|
|-------------------|-----------------|-------------------|------------------|
|------------10s8-8s|=5---------------|------------10s8-8s|=5----------------|
|-5-----------------|---5-----5-5---5-|-5-----------------|---5-----5-5---5--|
|-----5-------------|-----5-------5---|-----5-------------|-----5-------5----|
|-------5s10----8---|-5-----5---------|-------5s10----8---|-5-----5----------|
|
| E E E E  E  E E E   E E E E E E E E   E E E E  E  E E E   E E E E E E E E
|-------------------|-----------------|-------------------|------------------|
|-------------------|-----------------|-------------------|------------------|
|---2---2-----2---0-|---2---2---2---2-|---2---2-----2---0-|---2---2---2---2--|
|---2---2-----2---0-|-2-2---2-2-2---2-|---2---2-----2---0-|-2-2---2-2-2---2--|
|-0--------5----3---|-0---------------|-0--------5----3---|-0----------------|
|-------------------|-----------------|-------------------|------------------|


  q   E E  E  E E E   E E E E E E E E   q   E E  E  E E E   E E E E E E q
|-------------------|-----------------|-------------------|------------------||
|-------------------|-----------------|-------------------|------------------||
|------------10s8-8s|=5---------------|------------10s8-8s|=5----------------||
|-5-----------------|---5-----5-5---5-|-5-----------------|---5-----5-5------||
|-----5-------------|-----5-------5---|-----5-------------|-----5------------||
|-------5s10----8---|-5-----5---------|-------5s10----8---|-5-----5----------||
|
| E E E E  E  E E E   E E E E E E E E   E E E E  E  E E E   E E E E E E E E
|-------------------|-----------------|-------------------|------------------||
|-------------------|-----------------|-------------------|------------------||
|---2---2-----2---0-|---2---2---2---2-|---2---2-----2---0-|---2---2---2---2--||
|---2---2-----2---0-|-2-2---2-2-2---2-|---2---2-----2---0-|-2-2---2-2-2---2--||
|-0--------5----3---|-0---------------|-0--------5----3---|-0----------------||
|-------------------|-----------------|-------------------|------------------||


 verse 1 & 2
  $
  E E E E E E E E   E E E E E E E E   E E E E E E E E   E E E E E E E E
|-----------------|-----------------|-----------------|------------------|
|-----------------|-----------------|-----------------|------------------|
|-----------------|-----------------|-----------------|------------------|
|-5-5---5-5-5---5-|-2-2---2-2-2---2-|-5-5---5-5-5---5-|-2-2---2-2-2---2--|
|-----------------|-----------------|-----------------|------------------|
|-5-5---5-5-5---5-|-2-2---2-2-2---2-|-5-5---5-5-5---5-|-2-2---2-2-2---2--|
|
| E E E E E E q     E E E E E E E E   E E E E E E E E   E E E E E E q
|-----------------|-----------------|-----------------|------------------|
|-----------------|-----------------|-----------------|------------------|
|---2---2---2-----|---2---2---2-2-0-|---2---2---2---2-|---2---2---2------|
|---2---2---2-2---|-4-4---4-4-4-4---|---2---2---2---2-|-4-4---4---4-4----|
|-0---0---0---0---|-----------------|-0-------0---0---|-4-----------4----|
|-----------------|-----------------|-----------------|------------------|


  E E E E E E E E   E E E E E E E E   E E E E E E E E   E E E E E E q
|-----------------|-----------------|-----------------|------------------|
|-----------------|-----------------|-----------------|------------------|
|-----------------|-----------------|-----------------|------------------|
|-5-5---5-5-5---5-|-2-2---2-2-2---2-|-5-5---5-5-5---5-|-2-2---2---2------|
|-----------------|-----------------|-----------------|---------2--------|
|-5-5---5-5-5---5-|-2-2---2-2-2---2-|-5-5---5-5-5---5-|-2-2---2-2--------|
|
| E E E E E E q     E E E E E E E E   E E E E E E E E   E E q   E E E E
|-----------------|-----------------|-----------------|------------------|
|-----------------|-----------------|-----------------|---------------0--|
|---2---2---2-----|---2---2---2-2-0-|---2---2---2---2-|---2-------2---0--|
|---2---2---2-2---|-4-4---4-4-4-4---|---2---2---2---2-|-4-4-4---4-4-4----|
|-0---0---0---0---|-----------------|-0-------0---0---|-4---4---4---4----|
|-----------------|-----------------|-----------------|------------------|


                       to coda
  h.      q    h     +q.    E   E E E E E E E E
|------------|-0-----(0)------|-----------------|
|-3----------|-3-----(3)------|-----------------|
|-4----------|-1-----(1)------|-----------------|
|-3----------|-2-----(2)------|-5-5---5-5-5---5-|
|------------|----------------|-----5-------5---|
|------------|----------------|-5-5---5-5-5---5-|
|
| w            h.         E E   E E E E E E E E
|------------|----------------|-----------------|
|-1----------|-3--------------|-----------------|
|-0----------|-2------------0-|---2---2---2---2-|
|-2----------|-4------------0-|-2-2---2---2---2-|
|-0----------|-0----------0---|-0-------0-------|
|------------|----------------|-----------------|


  E E E E E E q     h.      q    h     +q.    E
|-----------------|------------|-0-----(0)------||
|-----------------|-3----------|-3-----(3)------||
|-----------------|-4----------|-1-----(1)------||
|-5-5---5-5-5-----|-3----------|-2-----(2)------||
|-----5-----------|------------|----------------||
|-5-5---5-5-5-----|------------|----------------||
|
| E E E E E E E E   w            h.         E E
|-----------------|------------|----------------||
|-----------------|-1----------|-3--------------||
|---2---2---2-----|-0----------|-2------------0-||
|-2-2---2---2-----|-2----------|-4------------0-||
|-0-------0-----0-|-0----------|-0----------0---||
|-----------------|------------|----------------||


 chorus
  q  E E  E  E q     E E E E E E E E   q  E E   q   q      E E E E E E E E
|------------------|-----------------|-------------------|------------------|
|------------------|-----------------|-------------------|------------------|
|------------------|-----------------|-------------------|------------------|
|-5----5----10-8---|---5-----5-5-----|-5------/10---8\---|---5-----5-5------|
|----5-------------|-5---5-------5---|-------------------|-5---5-------5----|
|-5------10----8---|-5-----5-5-----5-|-5----5-/10---8\---|-5-----5-5-----5--|
|
| q  q    q    E E   E E E E E E E E   q  E E   E E E  E   E E E E E E E E
|------------------|-----------------|-------------------|------------------|
|------------------|-----------------|-------------------|------------------|
|----------------2-|---2---2---2---2-|------2-----2----0-|---2---2---2------|
|----------------2-|-2-2---2-2-2---2-|-2--2-----0-2----0-|-2-2---2-2-2-2-2--|
|-0--0----5----3---|-0---------------|-0------------3----|-0----------------|
|------------------|-----------------|-------------------|------------------|
|-rhy fig 1
[ Tab from: http://www.guitartabs.cc/tabs/f/foghat/slow_ride_tab_ver_4.html ]
  q   E E  E  E E E   E E E E E E E E   q  E E  E  E E E   E E   E E E E q
|-------------------|-----------------|------------------|-------------------||
|-------------------|-----------------|------------------|-------------------||
|------------10s8-8s|=5---------------|-----------10s8-8s|=5-----------------||
|-5-----------------|---5-----5-5---5-|-5----------------|---5-------5-5-----||
|-----5-------------|-----5-------5---|----5-------------|-------5-----------||
|-------5s10----8---|-5-----5---------|------5s10----8---|-5-------5---------||
|
| E E E E  E  E E E   E E E E E E E E   q  q    E  E E E   E E A E E E E E E
|-------------------|-----------------|------------------|-------------------||
|-------------------|-----------------|------------------|-------------------||
|---2---2-----2---0-|---2---2---2---2-|------------2-----|---2-------2-2-0---||
|---2---2-----2---0-|-2-2---2-2-2---2-|-2----------2---2-|---0-0h2-2-2---0---||
|-0--------5----3---|-0---------------|-0--0----5----3---|-0---------------0-||
|-------------------|-----------------|------------------|-------------------||
                                                               end rhy fig 1-|

 bridge
                                                                      ~~
  q   E E +h        q   E E +h         h       h         A E E E E  E q.
|-----------------|------------------|-----------------|---------------------|
|-------5-(5)-----|-------5-(5)------|-----------------|---------------------|
|-------6-(6)-----|-------6-(6)------|-----------------|-----------/5--------|
|-------5-(5)-----|-5-----5-(5)------|-5---------------|-5s3---3-5----5------|
|-------7-(7)-----|-5-----5-(5)------|-5---------------|-----5---------------|
|-----------------|------------------|-----------------|---------------------|
|
| q.    E +q   q    E q   E +q   E E   E E E E E E E E     E E E E  E E  E E
|-----------------|------------------|-----------------|---------------------|
|-------3-(3)-----|-------3-(3)------|-----------------|---------------------|
|-------2-(2)--2--|-------2-(2)--2-0-|---2---2---2---2-|---------2----2--0-0-|
|-------4-(4)--4--|-2-2---4-(4)--4---|-2-----2-2-2---2-|---2-2---2--2----0---|
|-0-----0-(0)--0--|-0-0---0-(0)--0---|-0---------------|---0-----------------|
|-----------------|------------------|-----------------|---------------------|
|-rhy fig 2

  q   E E +h        E E E E +q   E E    q   E E q   E E
|-----------------|-------------------|-----------------|
|-------5-(5)-----|-------------------|-----------------|
|-------6-(6)-----|-------6-(6)-------|-----------------|
|-------5-(5)-----|---5---5-(5)-------|-5---3s5---------|
|-------7-(7)-----|-5-----7-(7)-------|-------5-3---5---|
|-----------------|----------------5\-|---------------8-|
|
| q.    E +q   q    E q   E +q   E E    E E E E E E E E
|-----------------|-------------------|-----------------|
|-------3-(3)-----|-------3-(3)-------|-----------------|
|-------2-(2)--2--|-------2-(2)--2-0--|---2---2---2-----|
|-------4-(4)--4--|-2-2---4-(4)--4----|-2---------------|
|-0-----0-(0)--0--|-0-0---0-(0)--0----|-0-------0---0-3-|
|-----------------|-------------------|-----------------|


      ~~~~~~~~~~~~~~~~~~
  +e  q.   +h       +h.         e s s
|-----------------|---------------5s3s==||
|-----5----(5)----|-(5)-----------------||
|-----------------|---------------------||
|-----------------|---------------------||
|-----5----(5)----|-(5)-----------------||
|-(8)-5----(5)----|-(5)-----------------||
|
| +e  q.   +h       +e  q  q  q   s s
|-----------------|---------------5s3s==||
|-----------------|---------------------||
|-----2----(2)----|-(2)-----------------||
|-----2----(2)----|-(2)-----------------||
|-(3)-0----(0)----|-(0)-----------------||
|-----------------|---------------------||
                          end rhy fig 2-|

 interlude
  ~~        ~~          ~
  q.    s s q.    s s   q  s  e. e e e s s
|-5-------------------|----------------5s3s|
|-------5s3s5---------|----5-/5------------|
|-----------------5s3s|=5----/5--5---------|
|---------------------|----------5---------|
|---------------------|--------------------|
|---------------------|--------------------|
|
| ~~        ~~          ~
| q   e s s q   e s s   q  s  e. e e e s s
|-5-------------------|----------------5s3s|
|-------5s3s5---------|----5---------------|
|-----------------6s4s|=6----/6------------|
|---------------------|----------7---------|
|---------------------|--------------------|
|---------------------|--------------------|


  ~~        ~~          ~
  q.    s s q.    s s   q  s  e. e e e e
|-5-------------------|-------------------|
|-------5s3s5---------|----5-/5-----------|
|-----------------5s3s|=5----/5--5--------|
|---------------------|----------5-----5--|
|---------------------|-------------------|
|---------------------|-------------------|
|
| ~~        ~~          ~
| q   e s s q   e s s   q  s  e. e e e e
|-5-------------------|-------------------|
|-------5s3s5---------|----5--------------|
|-----------------6s4s|=6----/6-----------|
|---------------------|----------7-----7--|
|---------------------|-------------------|
|---------------------|-------------------|


        ~~~~~~                              ~~~
  E E E E +q.    E         E   E   E     E +q.     E
|----------------5-|---------------------------------|
|------------------|-------5s==3--/5-----5-(5)-------|
|-5-6-7-8-(8)------|--------------/5-----------------|
|------------------|---------------------5-(5)-----5-|
|------------------|---------------------------------|
|------------------|---------------------------------|
|
|       ~~~~~~                           ~
| E E E E +q   E E   A    +E  +E   E     E +E  E E E
|----------------5-|---------------------------------|
|------------------|---------------------------------|
|-6-7-8-9-(9)------|-7b8==(7)r(7)--6b6.5-------------|
|------------------|---------------------7-(7)-----7-|
|------------------|---------------------------------|
|------------------|---------------------------------|


                                         d.s. al coda
  E E E E +q   E  E    s s  A      +E   E      E h
|-----------------5-|-10-8-10b12==(10)r-8b8.5---------||
|-------------------|-------------------------10------||
|-5-6-7-8-(8)-------|---------------------------------||
|-------------------|---------------------------------||
|-------------------|---------------------------------||
|-------------------|---------------------------------||
|
|       ~~~~~~
| E E E E +q   E  E    s s  A      +E   E      E h
|-------------------|-10-8-10b12==(10)r-8b8.5---------||
|----------------10-|-------------------------10------||
|-6-7-8-9-(9)-------|---------------------------------||
|-------------------|---------------------------------||
|-------------------|---------------------------------||
|-------------------|---------------------------------||


 chorus
  &
gtr ii plays rhy fig 1
  E E E E   q  q      E E E E E q   E   E E E E   q   q      E E E E E q   E
|-------------------|-----------------|--------------------|------------------|
|-------------------|-----------------|--------------------|------------------|
|-------------------|-----------------|--------------------|------------------|
|---5---5-/10--8\---|---5---5-5-5-----|---5---5-/10---8\---|---5---5-5-5------|
|-5---5-------------|-5---5-----------|-5---5--------------|-5---5------------|
|-5-----5-/10--8\---|-5-----5-5-------|-5-----5-/10---8\---|-5-----5-5-----5--|



  q   E E  E  E E E   E E E E E E E E   q  E E  E  E E E   E E   E E E E q
|-------------------|-----------------|------------------|-------------------||
|-------------------|-----------------|------------------|-------------------||
|------------10s8-8s|=5---------------|-----------10s8-8s|=5-----------------||
|-5-----------------|---5-----5-5-----|-5----------------|---5-------5-5-----||
|-----5-------------|-----5-------5---|----5-------------|-------5-----------||
|-------5s10----8---|-5-----5-------5-|------5s10----8---|-5-------5---------||



 bridge
gtr ii plays rhy fig 2
  q   E E +h        q   E E +h         q.     E E E E.    s
|-----------------|------------------|----------------------|
|-------5-(5)-----|-------5-(5)------|-------------------17-|
|-------6-(6)-----|-------6-(6)------|-5------5-------------|
|-------5-(5)-----|-5-----5-(5)------|-5------5-5-----------|
|-------7-(7)-----|-5-----7-(7)------|-5--------------------|
|-----------------|------------------|----------------------|



   s  s  s  s  s  s  s  s  e  e  e  s  s
|-17----17----17----17----17s21-17-------|
|----17----17----17----17----------17s15-|
|----------------------------------------|
|----------------------------------------|
|----------------------------------------|
|----------------------------------------|



  q   E E +h        E E E E +q.    A E   q   E E q   E  E
|-----------------|--------------------|------------------|
|-------5-(5)-----|-------5-(5)--------|------------------|
|-------6-(6)-----|-5-----6-(6)--------|------------------|
|-------5-(5)-----|-5-5---5-(5)--------|-5---3------------|
|-------7-(7)-----|-5-----7-(7)--------|-------5-3---5/-8-|
|-----------------|----------------5p0-|----------------8-|


      ~~~~~~~~~~~~~~~~~~~~~~~~~~~
  +E  q.   +h        q.    E +q    E E
|-----------------|--5-------------5s3s==|
|-----5----(5)----|--------5-(5)---5s3s==|
|-----------------|----------------------|
|-----------------|----------------------|
|-(8)-5----(5)----|----------------------|
|-(8)-5----(5)----|----------------------|



  gtr i (gtr ii out)
        <                                             <
                                                      ~
  h    +E  q.      h.       +E   E    h     +q.   E   w
|-8----(8)-----|-------------------|----------------|------||
|-8----(8)-8h==|==10-------(10)s13s|=15----(15)-----|-8----||
|--------------|-(10)--------------|----------------|------||
|--------------|-------------------|----------------|------||
|--------------|-------------------|----------------|------||
|--------------|-------------------|----------------|------||


 outro - solo
  gtr i
  ~~~~~~~~~~~~~~~~~~~~~~~~~
  h       +E  q.       +E  E s s E E E E     E
|--------------------|-------------------------|
|-------------5------|-(5)---------------------|
|--------------------|---------------3s5-------|
|-5-------(5)--------|-----5s3---3s5---------5-|
|--------------------|---------5---------------|
|--------------------|-------------------------|
|
| gtr ii
| E E E E  E  E  E E    E  E E   E E E q
|--------------------|-------------------------|
|--------------------|-------------------------|
|---2---2-----2----2-|-----2-----2---2---------|
|-2-2---2--2--2----2-|--2--2-----2-2-2-2-------|
|-0--------0---------|--0----------0---3b3.5---|
|--------------------|-------------------------|
|-rhy fig 3  --------|

  ~~~~~~~~~~~~              ~~~~~~~~~~~~
           |----3----|
  h       +q    q    q      h       +E q   E
|-------------------------|------------------|
|-------------------------|------------------|
|-4-------(4)---4\---3\---|----------------1-|
|-------------------------|-5-------(5)5-----|
|-------------------------|------------------|
|-------------------------|------------------|
|
| E E E E  E  E    E    E   E E E E  E E E E
|-------------------------|------------------|
|-------------------------|------------------|
|---2---2-----2---------2-|---2--------------|
|-2-2---2--2--2---------2-|-2-2-4-2--------2-|
|-0--------0--------------|-0--------3p0-3---|
|-------------------------|------------------|


                                 ~~~~~~~~
  h        h           h         h
|-------------------|-------------------|
|-------------------|-------------------|
|-4-------/6--------|-/8-------/11------|
|-------------------|-------------------|
|-------------------|-------------------|
|-------------------|-------------------|
|
| E E E E  E  E E E    E E E E   E E q
|-------------------|-------------------|
|-------------------|-------------------|
|---2---2-----2---2-|----2---2----------|
|-2-2---2--2--2---2-|--2-2---2---2---2--|
|-0--------0--------|--0---------3p0-3--|
|-------------------|-------------------|

w/rhy fig 3 x8
 ~~~~~~~~~~~~~~~
    h         h           q    q    E  E  E E
|---------------------|------------------------|
|---------------------|------------19s20-21----|
|-/13-------/16-------|-/18s==19---19s20-------|
|---------------------|------------------------|
|---------------------|------------------------|
|---------------------|------------------------|



      ~~~~~~~          ~~~~~~~~~
   e  e  +s   s  s  s  q    +s   s  s  s
|----17-(17)-----------------------------|
|---------------17----17---(17)----17----|
|-17---------17----17-----------17----17-|
|----------------------------------------|
|----------------------------------------|
|----------------------------------------|



   ~~~~~~~~~
   q    +s   s  s  s  e.    s  +s   s  s  s
|-------------------------------------------|
|-17---(17)------------------------15-------|
|-----------17-15s17-17----15-(15)----16s17-|
|--------------------17---------------------|
|-------------------------------------------|
|-------------------------------------------|



   E.    s  +s   s  E  E  E  E  E
|---------------------------------|
|-17------------15----17----15-16-|
|-17----15-(15)----16-17-15----16-|
|---------------------------------|
|---------------------------------|
|---------------------------------|



   ~~~~~~~~~~~~~~~~~~~~~~~~~~~~~~~~~~~~                      ~~
   h        +e   s  s  +s   s  e    q.      s  s  +s   s  e  q
|------------------17-(17)----17-|--------------------------------|
|-17-------(17)------------------|-20---------20-(20)----20-20----|
|-17-------(17)-17---------17----|---------20---------20----------|
|--------------------------------|--------------------------------|
|--------------------------------|--------------------------------|
|--------------------------------|--------------------------------|



                    ~~~~
   E    E  E    E   q.      E
|-----------------------------|
|-20\-/17---------------------|
|---------17\-/17-/17---------|
|-------------/17----------17-|
|-----------------------------|
|-----------------------------|



   ~~                                    ~~~~~~~
   q    E  E  E   E  E  E    s  s  E  E  E  +h
|-------------------------|------------------------*|
|-------------------17-17-|-------17---------------*|
|---------------/17-------|-17s15-17-17------------*|
|-17---------17-----------|-------17----17-(17)----*|
|------19-17--------------|------------------------*|
|-------------------------|------------------------*|
|
|  E E  E  E  E   E  E  E    E     E  E  E   h
|-------------------------|------------------------*|
|-------------------------|------------------------*|
|----2-----2------2-----2-|--------2-----2---2-----*|
|--2-2-----2--2---2-----2-|--2-----2-----2---2-----*|
|--0----------0-----------|--0---------------------*|
|-------------------------|------------------------*|
Comments