Foghat - Slow Ride Chords & Tabs

 

Slow Ride Chords & Tabs

Foghat Chords & Tabs

Version: 2 Type: Tab 1 rating
1 star 2 stars 3 stars 4 stars 5 stars
comments

Slow Ride Tab

Foghat
Slowride
Intro

                      standard tuning 


       This is just the intro, I don't know the rest

/   slide
[ Tab from: http://www.guitartabs.cc/tabs/f/foghat/slow_ride_tab_ver_2.html ]
)---------------------------------------------------------
)---------------------------------------------------------
)---------------------------------------------------------
)---2-2---2-2-2---2-2-2---2-2-2---2-2---2-2-2-------------
)---0-0---0-0-0---0-0-0---3-0-3---0-0---0-0-0-------------
)-----------------------------------------------0---------

)---------------------------------------------------------
)---------------------------------------------------------
)---------------------------------------------------------
)---2-2---2-2-2---2-2-2---7/5/2-2---2-2-2---2-2-2---7/5/2-
)---0-0---0-0-0---0-0-0---5/3/0-0---0-0-0---0-0-0---5/3/0-
)---------------------------------------------------------
                            repeat several times      


Comments