Foghat - I Just Want To Make Love To You Chords & Tabs

 

I Just Want To Make Love To You Chords & Tabs

Foghat Chords & Tabs

Version: 1 Type: Tab

I Just Want To Make Love To You Tab

   
FOGHAT-I JUST WANT TO MAKE LOVE TO YOU
well, this is the first tab i've submitted. i've been looking for the intro and could 
find it so i figured it out myself. probably not perfect but sounds right when i play it.


|--------------------------------------|
|--------------------------------------|
|7b------7br-5---5-5-------------------|x2 (2nd guitar echos)
|--------------7------5-7--------------|
|--------------------------------------|
|--------------------------------------|

[ Tab from: http://www.guitartabs.cc/tabs/f/foghat/i_just_want_to_make_love_to_you_tab.html ]
|--------------------------------------|
|--------------------------------------|
|7br-5--------7br-5--------------------|keep repeating and get faster
|------5-7----------5-7----------------|(2nd guitar echoing faster)
|--------------------------------------|
|--------------------------------------|

 A       D C     A      D C
|--------------------------------------|
|--------------------------------------|
|--------7-5------------7-5------------|
|7-7-7-7-7-5----7-7-7-7-7-5------------|keep repeating
|7-7-7-7-5-3----7-7-7-7-5-3------------|
|5-5-5-5--------5-5-5-5----------------|


~Dash