Fogerty John - The Old Man Down The Road Chords & Tabs

 

The Old Man Down The Road Chords & Tabs

Fogerty John Chords & Tabs

Version: 1 Type: Tab 0 ratings
1 star 2 stars 3 stars 4 stars 5 stars
comments

The Old Man Down The Road Tab

#----------------------------------PLEASE NOTE--------------------------------#
#This file is the author's own work and represents their interpretation of the#
#song. You may only use this file for private study, scholarship, or research.#
#-----------------------------------------------------------------------------#

Date: Mon, 25 May 1998 21:26:54 -0400
From: Rob Keister 
Subject: f/fogerty_john/the_old_man_down_the_road.tab


THE OLD MAN DOWN THE ROAD
written and performed by John Fogerty

tabbed by Rob Keister 
(lyrics and most chords are from the .CRD file by 
Collins Crapo 

intro:
|-----------------------------|---------------------------------------|
|-----------------------------|---------------------------------------|
|-----------------------------|---------------------------------------|
|-5-7-7b(8)-5-----------------|-5-7-7b(8)-(8)-b(8)7-5-----------------|
|-------------7--0-----7---7--|-----------------------7--0-----7---7--|
|------------------3-0---0----|----------------------------3-0---0----|

          
there's alot of this:
[ Tab from: http://www.guitartabs.cc/tabs/f/fogerty_john/the_old_man_down_the_road_tab.html ]
|----16----16-16---16-16\---------------|
|---------------------------------------|  ---(mute this string)
|-/16---16------16----------------------|
|---------------------------b(8)7--5----|
|------------------------------------7--|
|---------------------------------------|

and this bass run:

|----------------------------|
|----------------------------|
|----------------------------|
|-2-2-2-2-0------------------|
|-----------2-0--------------|
|---------------0------------|

I'm still working on this one:

|----------------------------------|
|---b2(2.5)---------b2(2.5)--------|
|---b2(2.5)-0-----0-b2(2.5)-0------|
|-2-----------2---------------2----|
|----------------------------------|
|----------------------------------|


You may not be able to play all these parts by yourself; I know I can't.  
Fogerty MUST have had multiple guitars/tracks doing them (that's my story and 
I'm sticking with it).

Tab notes:

--8b(9)--  play fret eight, bend the string (at fret eight) to reach the
             pitch of fret nine
--b(9)8--  play fret eight already bent to the pitch of fret nine,
             releasing until it reaches the normal pitch of fret eight
-8b(8.5)-  play fret eight, bend the string (at fret eight) to reach the
             pitch a half note higher than the normal pitch of fret eight
---15\---  play fret 15, slide down (the ending fret of the slide is
             undefined, judge by ear)


Rob Keister  
Comments