Fogerty John - Joy Of My Life Chords & Tabs

 

Joy Of My Life Chords & Tabs

Fogerty John Chords & Tabs

Version: 1 Type: Tab 0 ratings
1 star 2 stars 3 stars 4 stars 5 stars
comments

Joy Of My Life Tab

#----------------------------------PLEASE NOTE---------------------------------#
#This file is the author's own work and represents their interpretation of the #
#song. You may only use this file for private study, scholarship, or research. #
#------------------------------------------------------------------------------#

Song:Joy Of My Life
Written by: John Fogerty
Tabbed by: Conart_cry@yahoo.com

This is a Doboro or whatever guitar, I got a chance to try it out, and
 low and behold it was beautifully perfect!

Of course H = hammer on and P = pull-off. /=slide up, \=slide down
W/slide, in fact all slides are with a slide
[ Tab from: http://www.guitartabs.cc/tabs/f/fogerty_john/joy_of_my_life_tab.html ]
   (Riff.1)              ----------------------.1|     (Riff.1a)2|
E|-----------------------------------------------|----------------
B|---------------0-/(2)------5-p-3-p 0-----------|----------------
G|-----------0---0-/-3---0--------------3-\-2--0-|----2/3-3-2-0---
D|-------0h2-------------------------------------|--------------0-
A|-----------------------------------------------|----------------
E|----3-----------------(3)----------------------|-3--------------
                        2nd Time                     (Riff.1a)


Guitar Solo:

E|------------------------------------------------------
B|-----/-13-13-13-\-----/-5-5-/8\(1)--------------------
G|-/12---------------/5---------------Riff.1------------
D|------------------------------------------------------
A|------------------------------------------------------
E|------------------------------------------------------

E|------------------------------------------------------
B|-----7----7-7/10\-7-----5-----5----5/8-\-0------------
G|--/7---7------------/5-----5-----5---------0----------
D|-----------------------------------------------Riff.1-
A|------------------------------------------------------
E|------------------------------------------------------



Riff 1 with 1a but end 1a with the decreasing tempo in the end!
Comments